Good Charlotte

home > Good Charlotte

Put Your Hands On My Shoulder Bass Tab

Good Charlotte

Difficulty: nolevelnolevel

by gustsilva

tuner correct add songbook print version text version save to e-mail
chordsukulelecavacokeyboardtabbassdrumsharmonicsflute Guitar Pro
chords

Put Your Hands On My Shoulder

  		Intro 
G|-----------------------------------4--444------| 
D|--4~--4------9--6~--6------4--444----------4~--| 
G|---------8~------------6~----------------------| 
D|-----------------------------------------------| 

verse 1 
G|---------------------------------------| 
D|--1111111111111--666666----------------| 
G|-------------------------666666--8--6--| 
D|---------------------------------------| 

G|--------------------------------------------------------| 
D|--4~-4---9-6~-6------4~-4---9-6~-6-------4-444---4~-----| 
G|-------8~-------6--6------8~-------6-8-6-------8---888--| 
D|--------------------------------------------------------| 

G|--------------------------------------| 
D|---111111111111--666666---------------| 
G|-------------------------666666--8-6--| 
D|--------------------------------------| 

G|-----------------------------------------------4--444-----| 
D|--4~-4---9-6~-6-----4~-4---9-6~-6--------4-444--------4~--| 
G|-------8~-------6-6------8~-------6~-8-6------------------| 
D|----------------------------------------------------------| 

G|-------------------------------------| 
D|-------------------------------------| 
G|--6-6-6-6--6-6-6-6-------------------| 
D|-------------------4-4-4-4--4-4-4-4--|  2x 

G|----------------------------------------------------------------------| 
D|----------------------------------------------------------------------| 
G|-------------------------------------------------------666666666666~--| 
D|--3-3-3-3--3-3-3-3--8-8-8-8--8-8-8-8--6-6-6-6--6-6-6-6----------------| 

   pause 

G|----------------------------------| 
D|--111111111111-666666-------------| 
G|----------------------666666-8-6--| 
D|----------------------------------| 

G|--------------------------------------------------6--666--7~--| 
D|--4~-4---9-6~-6------4~--4---9-6~-6--------4--444-------------| 
G|-------8~-------6--6-------8~-------6~-8-6--------------------| 
D|--------------------------------------------------------------| 

G|--222222222222-777777--------------| 
D|-----------------------777777-9-7--| 
G|-----------------------------------| 
D|-----------------------------------| 

G|------------------------------------------------| 
D|--555555--------777777--------555555--------7~--| 
G|---------999999--------777777--------999999-----| 
D|------------------------------------------------| 

G|---------55555-----| 
D|--555555-------5~--| 
G|-------------------| 
D|-------------------| 
	  

Search Paypal
auto scroll beats size up size down change color hide chords drawings
tab show chords e-chords YouTube Clip e-chords hide all tabs e-chords go to top tab