Good Charlotte

home > Good Charlotte

My Bloody Valentine (ver. 3) Bass Tab

Good Charlotte

Difficulty: nolevelnolevel

tuner correct add songbook print version text version save to e-mail
chordsukulelecavacokeyboardtabbassdrumsharmonicsflute Guitar Pro
chords

My Bloody Valentine (ver. 3)

  		

Song : 
Band : 
Album : The Young And The Hopeless
Tabbed : Lucky ([email protected])

Turn Your E String into a D

Intro
G:---------------------------------
D:---------------------------------
A:---------------------------------
D:-0000000000000000000000000000000-

Verses
G:------------------------------------------------------------------
D:------------------------------------------------------------------
A:-00000-----------00000-----------00000-----------5555555555555555-
D:------44222222222-----44222222222-----44222222222-----------------

Pre Chorus
G:--------------------------------------------------------------------------------------------
D:--------------------------------------------------------------------------------------------
A:-2~----2-4--------------------------------------2~----2-4-5~------------------5555555555555-
D:-----------0~----44444--22222--0000000000000000-----------------44444--22222----------------

Chorus
G:---------------------------------|--------------------------------|X2|
D:---------------------------------|--------------------------------|X2|
A:-0000000-------------------------|0000000----------------5-5555555|X2|
D:--------2-222222244444440-0000000|-------2-22222224444444---------|X2|

G:----------------------------------
D:----------------------------------
A:-0000000---------5555555555555555-
D:--------2-2222222-----------------

Bridge
G:-----------------------------------------------------------------------------------------
D:-----------------------------------------------------------------------------------------
A:-0~--------------------0~----------5~----/12~-|-0~--------------------|X3|-0~------------
D:-------2~----0~--------------2~---------------|-------2~----0~--------|X3|-------2~----0-

Outro
G:---------------------------------|X2
D:---------------------------------|X2
A:---------------------------------|X2
D:-0000000000000000000000000000000-|X2

	  

Search Paypal
auto scroll beats size up size down change color hide chords drawings
tab show chords e-chords YouTube Clip e-chords hide all tabs e-chords go to top tab