Good Charlotte

home > Good Charlotte

My Bloody Valentine (ver. 2) Bass Tab

Good Charlotte

Difficulty: nolevelnolevel

tuner correct add songbook print version text version save to e-mail
chordsukulelecavacokeyboardtabbassdrumsharmonicsflute Guitar Pro
chords

My Bloody Valentine (ver. 2)

  		

Band:

Album:The Young & The Hopeless

Tabbed by Kyle Gayne

(bass starts at 0:18)
Intro
G:----------------------------------|
D:----------------------------------|
A:-55555555555555555555555555555555-|x1
E:----------------------------------|

Verse
G:------------------|  |-----------------|
D:------------------|  |-----------------|
A:------------------|x3|-5-5-5-5-5-5-5-5-|x1
E:-555555220-000000-|  |-----------------|

G:------------------|  |-----------------|
D:------------------|  |-----------------|
A:------------------|x3|-5-5-5-5-5-5-5-5-|x1
E:-555555220-000000-|  |-----------------|

Pre Chorus
G:------------------------------------------------------------------|
D:------------------------------------------------------------------|
A:-2~~~--------2/--5-------------------------------5555555555555555-|x1
E:---------------------------------22222---55555--------------------|

G:------------------------------------------------------------------|
D:------------------------------------------------------------------|
A:-2~~~--------2/--5-------------------------------5555555555555.---|x1
E:---------------------------------22222---55555--------------------|

Chorus
G:----------------------------------|
D:----------------------------------|
A:-------------------------5-555555-|x3
E:-5-5555550-0000002-222222---------|

G:----------------------------------|
D:----------------------------------|
A:-----------------5555555555555555-|x1
E:-5-5555550-000000-----------------|

Verse
G:------------------|  |-----------------|
D:------------------|  |-----------------|
A:------------------|x3|-5-5-5-5-5-5-5-5-|x1
E:-555555220-000000-|  |-----------------|

G:------------------|  |-----------------|
D:------------------|  |-----------------|
A:------------------|x3|-5-5-5-5-5-5-5-5-|x1
E:-555555220-000000-|  |-----------------|

Pre Chorus
G:------------------------------------------------------------------|
D:------------------------------------------------------------------|
A:-2~~~--------2/--5-------------------------------5555555555555555-|x1
E:---------------------------------22222---55555--------------------|

G:------------------------------------------------------------------|
D:------------------------------------------------------------------|
A:-2~~~--------2/--5-------------------------------5555555555555.---|x1
E:---------------------------------22222---55555--------------------|

Chorus
G:----------------------------------|
D:----------------------------------|
A:-------------------------5-555555-|x3
E:-5-5555550-0000002-222222---------|

G:----------------------------------|
D:----------------------------------|
A:-----------------5555555555555555-|x1
E:-5-5555550-000000-----------------|

Bridge
G:----------------------------------|
D:----------------------------------|
A:-----------------5~~~-------------|x1
E:-5~~~----0~~~---------------------|

G:----------------------------------| The bracketed slide is hard to  
D:-------------------------(5/12/5)-| hear so you don't need to play it
A:-----------------5~~~-------------|x1
E:-5~~~----0~~~---------------------|

G:----------------------------------|
D:----------------------------------|
A:-----------------5~~~-------------|x3
E:-5~~~----0~~~---------------------|

G:----------------------------------|
D:----------------------------------|
A:-----------------5.---------------|x1
E:-5~~~----0~~~---------------------|

Chorus
G:----------------------------------|
D:----------------------------------|
A:-------------------------5-555555-|x3
E:-5-5555550-0000002-222222---------|

G:----------------------------------|
D:----------------------------------|
A:-----------------5555555555555555-|x1
E:-5-5555550-000000-----------------|

Outro
G:------------------------------------------------------------------|
D:------------------------------------------------------------------|
A:-5555555555555555555555555555555555555555555555555555555555555555-|x1
E:------------------------------------------------------------------|

	  

Search Paypal
auto scroll beats size up size down change color hide chords drawings
tab show chords e-chords YouTube Clip e-chords hide all tabs e-chords go to top tab