Good Charlotte

home > Good Charlotte

My Bloody Valentine Bass Tab

Good Charlotte

Difficulty: nolevelnolevel

tuner correct add songbook print version text version save to e-mail
chordsukulelecavacokeyboardtabbassdrumsharmonicsflute Guitar Pro
chords

My Bloody Valentine

  		






: 
from The Young and the Hopeless
Tabbed By: Tom O. (E-mail: [email protected])
Notes:This is a pretty easy song...  I saw GC like a week ago in a club show in Buffalo and Paul was standing about 10 feet front of me on stage so i saw him play this song and i'm almost positive its 100%. He uses a Lakland 5 string (i know what youre thinkin... a 5 string in punk? NO WAY) tuned standard BEADG.Alot of the parts he plays lower than Benji and Billy on his B so its hard to hear but trust me its there.I'll just tab out the parts, the order you can figure out yourself.Enjoy!! 
Notation:
/= slide
~=hold note

**NOTE** OK,I'm tired of e-mailing people the same file 10 times a day lol, so 
I put the 4 and 5 string tabs into one.5 str. tuned BEADG,4 str. tuned down BFBE 
INTRO 5 STRING
G|-----------------|
D|-----------------|x4
A|-----------------|
E|-----------------|
B|-3-3-3-3-3-3-3-3-|

(4 string parts will be below the 5 string parts)
E|-----------------|x4
B|-----------------|
F|-----------------|
B|-3-3-3-3-3-3-3-3-|
 
VERSE 5 STRING
Part A
G|-----------------------------------|
D|-----------------------------------|x3
A|-----------------------------------|
E|-5-5-5-5-5-5-5-2-2-0-0-0-0-0-0-0-0-|
B|-----------------------------------|
Part B
G|---------------------------|
D|---------------------------|
A|-5--5--5--5--5--5--5-5-5-5-|
E|---------------------------|
B|---------------------------|

then play part A 3x
Part C
G|---------------------------------|
D|---------------------------------|
A|-5-5-5-5-5-5-5-5-5-5-5-5-5-5-5-5-|
E|---------------------------------|
B|---------------------------------|

VERSE 4 STRING Part A
E|-----------------------------------|x3
B|-----------------------------------|
F|-3-3-3-3-3-3-3-2-2-----------------|
B|-------------------5-5-5-5-5-5-5-5-|
Part B
E|---------------------------|
B|-3--3--3--3--3--3--3-3-3-3-|
F|---------------------------|
B|---------------------------|

then play part A 3x
Part C
E|---------------------------------|
B|-3-3-3-3-3-3-3-3-3-3-3-3-3-3-3-3-|
F|---------------------------------|
B|---------------------------------|

CHORUS 5 STRING Part A (You mourn the death...)
G|-------------------------------------------------------------------------|
D|-------------------------------------------------------------------------|x2
A|-----------------------------------------5-5-5-5-5-5-5-5-5-5-5-5-5-5-5-5-|
E|-------------------2-2-2-2-2/--------------------------------------------|
B|-0~~-0-2-3~-3--3-3------------5-5-5-5-5/---------------------------------|
Part B (Oh my love...)
G|----------------------------------------------------------------|
D|----------------------------------------------------------------|x4
A|------------------------------------------------5-5-5-5-5-5-5-5-|
E|-5-5-5-5-5-5-5-5-0-0-0-0-0-0-0-0-2-2-2-2-2-2-2-2----------------|
B|----------------------------------------------------------------|

CHORUS 4 STRING
Part A (You mourn the death...)
E|-------------------------------------------------------------------------|x2
B|-----------------------------------------3-3-3-3-3-3-3-3-3-3-3-3-3-3-3-3-|
F|-------------------0-0-0-0-0---------------------------------------------|
B|-0~~-0-2-3~-3--3-3------------5-5-5-5-5/---------------------------------|

Part B (Oh my love...)
E|-----------------------------------------------------------------|x4
B|-------------------------------------------------3-3-3-3-3-3-3-3-|
F|-3-3-3-3-3-3-3-3-----------------0-0-0-0-0-0-0-0-----------------|
B|-----------------5-5-5-5-5-5-5-5---------------------------------|

BRIDGE 5 STRING (He dropped you off...)
G|--------------|
D|--------------| (the second time, slide the A5 all the way up and down)
A|---------5~~~-|
E|-5~~-0~~------|
B|--------------|

G|-------------|
D|-------------| Alternate between these 2 riffs for the bridge,   
A|-------------| Paul switches between the high and low D (A5 and B3) 
E|-5~~-0~~-----|
B|--------3~~~-|

BRIDGE 4 STRING (he dropped you off...) 
E|--------------| (the second time, slide the hi-B3 all the way up and down)
B|---------3~~~-|
F|-3~~----------|
B|-----5~~------|

E|--------------|
B|--------------| alternate in between these 2 riffs, Paul plays both
F|-3~~----------|
B|-----5~~-3~~~-|

ENDING 5 STRING (From the last chorus riff)
G|-----------------------------------------------------------------|
D|-----------------------------------------------------------------|
A|-----------------------------------------------------------------|
E|-5-5-5-5-5-5-5-5-0-0-0-0-0-0-0-0-2-2-2-2-2-2-2-2-2-2-2-2-2-2-2-2-|
B|-----------------------------------------------------------------|
then
G|-----------------|
D|-----------------|x8
A|-----------------|
E|-----------------|
B|-3-3-3-3-3-3-3-3-|

ENDING 4 STRING
(From the last chorus riff)
E|-----------------------------------------------------------------|
B|-----------------------------------------------------------------|
F|-3-3-3-3-3-3-3-3-----------------0-0-0-0-0-0-0-0-0-0-0-0-0-0-0-0-|
B|-----------------5-5-5-5-5-5-5-5---------------------------------|
then
E|-----------------|x8
B|-----------------|
F|-----------------|
B|-3-3-3-3-3-3-3-3-|
Thats all... Questions,commments, my e-mail is above! I'm really sorry if its messy
but I transcribed it as neatly as I could! 

	  

Search Paypal
auto scroll beats size up size down change color hide chords drawings
tab show chords e-chords YouTube Clip e-chords hide all tabs e-chords go to top tab