Good Charlotte

home > Good Charlotte

Movin On (ver. 2) Bass Tab

Good Charlotte

Difficulty: nolevelnolevel

tuner correct add songbook print version text version save to e-mail
chordsukulelecavacokeyboardtabbassdrumsharmonicsflute Guitar Pro
chords

Movin On (ver. 2)

  		

-
Tab by nofxboy9

Intro
G|--------------------------------
D|--------------------------------
A|--------------------------------
E|--0--4-6-4---4-6-0--4-6-4-------

Verse
G|---------------------------------------------------------------
D|---------------------------------------------------------------
A|-66-666-66-666-------------------------------------------------
E|---------------------88-888-88-888--66-666-66-666--444444444---

Pre chorus
G|------------------------------
D|------------------------------
A|-----------66-666-66-666------
E|--4—6-------------------------

Cont
G|--------------------------------------------------------
D|--------------------------------------------------------
A|----------------------66666666--------------------------
E|--44444444—66666666--------------88888888--44444446-----

Chorus
G|----------------------------------------------
D|----------------------------------------------
A|----------------------------------------------
E|--00000000--644444446--00000000--64444446-----

Verse
G|---------------------------------------------------------------
D|---------------------------------------------------------------
A|-66-666-66-666-------------------------------------------------
E|---------------------88-888-88-888--66-666-66-666--444444444---

Pre chorus
G|------------------------------
D|------------------------------
A|-----------66-666-66-666------
E|--4—6-------------------------



Cont
G|-----------------------------------------------------
D|-----------------------------------------------------
A|-----------------------------66666666----------------
E|--44444444—66666666--------------88888888--44444446--

Chorus
G|----------------------------------------------
D|----------------------------------------------
A|----------------------------------------------
E|--00000000--644444446--00000000--64444446-----

G|----------------------
D|----------------------
A|----------------------
E|-4444444444444444-----

Chorus
G|----------------------------------------------
D|----------------------------------------------
A|----------------------------------------------
E|--00000000--644444446--00000000--64444446-----

G|--------------------------------
D|--------------------------------
A|--------------------------------
E|--0--4-6-4---4-6-0--4-6-4-------

Question comments or suggestion please e-mail me at [email protected]
Please rate this tab

	  

Search Paypal
auto scroll beats size up size down change color hide chords drawings
tab show chords e-chords YouTube Clip e-chords hide all tabs e-chords go to top tab