Good Charlotte

home > Good Charlotte

Movin' On Bass Tab

Good Charlotte

Difficulty: EasyEasy

tuner correct add songbook print version text version save to e-mail
chordsukulelecavacokeyboardtabbassdrumsharmonicsflute Guitar Pro
chords

Movin' On

  		




movin on
BAND:
TAB BY:TAD 
TUNING:D,G,B,E (drop each note down a string)

PART 1
E:----------------------
B:----------------------
G:-8~------------8-0----
D:----6-0-6--6-0-----6--

PART 2
E:-----------------------------------------------------
B:-----------------------------------------------------
G:-88-888-88-888-------------66-666-66-666-------------
D:--------------66-666-66-666--------------4444444444--

PART 3
E:-------------------
B:-------------------
G:-8~----------------
D:----6~--4-4-44-44--

PART 4
E:---------------------------------------------
B:---------------------------------------------
G:-88888888--------------------------88--------
D:---------66666666-44444444-66666666--888888--

PART 5
E:-----------------------------------
B:-----------------------------------
G:-88888888--------88888888----------
D:---------66666666--------88888888--

PART 6
E:-------------------
B:-------------------
G:-------------------
D:-4444444444444444--

ENDING
E:------------------------------
B:------------------------------
G:-8~------------8-0---8---0-8--
D:----6-0-6--6-0-----6---6------

order

PART 1 x1
PART 2 x2
PART 3 x2
PART 4 x1
PART 5 x1
PART 2 x2
PART 3 x2
PART 4 x1
PART 5 x2
REST
PART 6 x1
PART 5 x2
ENDING x1

thats it. if there is something wrong PLEASE tell me. . if you like what you see please RATE IT!!!

	  

Search Paypal
auto scroll beats size up size down change color hide chords drawings
tab show chords e-chords YouTube Clip e-chords hide all tabs e-chords go to top tab