Good Charlotte

home > Good Charlotte

Little Things (ver. 2) Bass Tab

Good Charlotte

Difficulty: nolevelnolevel

tuner correct add songbook print version text version save to e-mail
chordsukulelecavacokeyboardtabbassdrumsharmonicsflute Guitar Pro
chords

Little Things (ver. 2)

  		

Artis:   
    
Instrumenst:  Bass

Intro (no bass until 15 seconds in to the song)

Verse
G|--------------------------------|
D|--------------------------------|
A|---44444------------------------|
E|----------4-4-4-22222--1-1-0----|

Chorus 1          the little things.....
G|--------------------------------|
D|--------------------------------|
A|---4444-------------------------|
E|--------4444-2222-5555----------|

Chorus 2      you wana hate me now....
G|--------------------------------|
D|--------------------------------|
A|---2-22-------------------------|
E|--------5-55--------------------|

Transition 1
G|--------------------------------|
D|--------------------------------|
A|---44444------------------------|
E|----------4-4-4-22222-55555-----|

Transition 2
G|--------------------------------|
D|--------------------------------|
A|--------------------------------|
E|---3-4-5-6----------------------|

Transition 3
G|---------------------------------|
D|---------------------------------|
A|---------------------------------|
E|-0-1-2-3-4-5-6-7-8-9-10-11-12-13-|

Order of play:

Verse         x11
Transition 1  x1
Chorus 1      x4
Chorus 2      x4
Transition 2  x1
Verse         x7
Transition 1  x1
Chorus 1      x4
Chorus 2      x4
Transition 3  x1
Chorus 1      x4
Verse         play to the end of song, end on note A4

This is a very easy song to learn, and even easier to play
This is my first tab but i know its right... correct this if you think its wrong

Later

	  

Search Paypal
auto scroll beats size up size down change color hide chords drawings
tab show chords e-chords YouTube Clip e-chords hide all tabs e-chords go to top tab