Good Charlotte

home > Good Charlotte

Lifestyles Of The Rich & Famous (ver. 3) Bass Tab

Good Charlotte

Difficulty: nolevelnolevel

tuner correct add songbook print version text version save to e-mail
chordsukulelecavacokeyboardtabbassdrumsharmonicsflute Guitar Pro
chords

Lifestyles Of The Rich & Famous (ver. 3)

  		
Song : Lifestyles of the rich and famous
Band : 
Album : The Young And The Hopeless
Tabbed By : Lucky ([email protected])

Turn your E string into a C#

note : '>' means 8 times

Verses
G :-----------------------------------------------------------------
D :---------------------------------4-4-4-4-4-4-4-4-----------------
A :-4-4-4-4-4-4-4-4-6-6-6-6-6-6-6-6-----------------4-4-4-4-4-4-4-4-
C#:-----------------------------------------------------------------

Pre Chorus
G :--------------|X2|-----
D :--------------|X2|-----
A :-1>>---4>>----|X2|-----
C#:----5>>---7>>-|X2|-5>>-

Chorus
G :--------------------------
D :--------------------------
A :--------------------------
C#:-0>>2>>5>>0>>0>>2>>5>>0>>-

Bridge
G :-----------------|X2|-----------------|X6|
D :-----------------|X2|-----------------|X6|
A :-4-4-4-4-4-4-4-4-|X2|-4-4-4-4-4-4-4-4-|X6|
C#:-----------------|X2|------------7-7-7|X6|

Outro
G :--------
D :--------
A :--------
C#:-5>>0>>-

	  

Search Paypal
auto scroll beats size up size down change color hide chords drawings
tab show chords e-chords YouTube Clip e-chords hide all tabs e-chords go to top tab