Good Charlotte

home > Good Charlotte

Lifestyles Of The Rich & Famous Bass Tab

Good Charlotte

Difficulty: nolevelnolevel

tuner correct add songbook print version text version save to e-mail
chordsukulelecavacokeyboardtabbassdrummharmonicsflute Guitar Pro
chords

Lifestyles Of The Rich & Famous

  		




Artist - 
Song - Lifestyles Of The Rich And Famous
Album - The Young And The Hopeless (2003)
Notes - Standard Tuning EADG
Tabbed By - James Hill [email protected]

NOTE - Actually, I'm sure he uses a 5 string bass in this song, but since i don't have one and I'm sure more people have 4 strings than 5 strings, I've tabbed it for the 4 string.  If you have a 5 string then I'm sure you're good enough to work out the bits where it's an octave lower.

Bass comes in at 0:17 ("they want sympathy."

G|--|
D|--|
A|--|
E|4/|

Verse
G|----------------|----------------|----------------|----------------|
D|----------------|----------------|----------------|----------------|
A|----------------|6-6-6-6-6-6-6-6-|9-9-9-9-9-9-9-9-|----------------|
E|9-9-9-9-9-9-9-9-|----------------|----------------|9-9-9-9-9-9-9-9-|

Pre Chorus
G|----------------|----------------|----------------|----------------|
D|----------------|----------------|----------------|----------------|
A|----------------|----------------|----------------|----------------|
E|6-6-6-6-6-6-6-6-|2-2-2-2-2-2-2-2-|9-9-9-9-9-9-9-9-|4-4-4-4-4-4-4-4-|x2

Pre Chorus End
G|----------------|----------------|
D|----------------|----------------|
A|----------------|----------------|
E|2-2-2-2-2-2-2-2-|2\--------------|

Chorus - play verse riff x2
Verse 2 - play verse riff x2
Pre Chorus - play pre chorus x2
then Pre Chorus End x1
Chorus 2 - play verse riff x 2

Bridge
G|----------------|----------------|     |----------------|
D|----------------|----------------|     |----------------|
A|----------------|----------------|     |----------------|
E|9-9-9-9-9-9-9-9-|9-9-9-9-9-9-9-9-|x3 |9-9-9-9-9-9-9-9-|

Half Time Chorus - play verse riff x2
Chorus 3 - play verse riff x1

Outro
G|----------------|----------------|
D|----------------|----------------|
A|----------------|4-4-4-4-4-4-4-4-|
E|2-2-2-2-2-2-2-2-|----------------|x3

End
G|----------------|
D|----------------|
A|4-4-4-4-4-------|
E|----------------|

	  

Search Paypal
auto scroll beats size up size down change color hide chords drawings
tab show chords e-chords YouTube Clip e-chords hide all tabs e-chords go to top tab