Good Charlotte

home > Good Charlotte

Let Me Go (ver. 3) Bass Tab

Good Charlotte

Difficulty: nolevelnolevel

tuner correct add songbook print version text version save to e-mail
chordsukulelecavacokeyboardtabbassdrumsharmonicsflute Guitar Pro
chords

Let Me Go (ver. 3)

  		


Verse
G-----------------------
D-----------------------
E-3-3-------------------
A-----0-1-1--3-5-5-0-3--

Chorus
G-----------------------
D-----------------------
E-3-3-------------------
A-----0-1-1--3-5-5-0-3--

End of Chorus
G--------------------
D---------------------
A--3-3-3-3---5-5-5-5--
E---------------------

Bridge Repeat
G-------
D-------
A-------
E---3--- 




	  

Search Paypal
auto scroll beats size up size down change color hide chords drawings
tab show chords e-chords YouTube Clip e-chords hide all tabs e-chords go to top tab