Good Charlotte

home > Good Charlotte

Girls & Boys (ver. 3) Bass Tab

Good Charlotte

Difficulty: nolevelnolevel

tuner correct add songbook print version text version save to e-mail
chordsukulelecavacokeyboardtabbassdrumsharmonicsflute Guitar Pro
chords

Girls & Boys (ver. 3)

  		


Boys And Girls
Tabber :Gooch182
Im sure this is 100% right

Intro   
G-----------------------
D-----------------------
A---------------65----- x2
E--4-0-4-6----4-----6---

Riff 1                  last time               
G-------------------|   |---------
D-------------------|   |---------
A-------------------| x4|---------
E---4444---66666----|   |-4444444-

Chorus 
G-------------------------------------
D-------------------------------------
A6666666-5555555--------------------- x2
E------------------------4444444444---
	
Intro  
G-----------------------
D-----------------------
A---------------65----- x5
E--4-0-4-6----4-----6---

Riff 1                   last time               
G-------------------|   |---------|
D-------------------|   |---------|
A-------------------| x3|---------|
E---4444---66666----|   |-4444444-|

Chorus 
G-------------------------------------
D-------------------------------------
A6666666-5555555--------------------- x4
E------------------------4444444444---

Bridge  
G-----------------------
D-----------------------
A---3-------6-5-------- x2
E--6---4---------4------

Chorus 
G-------------------------------------
D-------------------------------------
A6666666-5555555--------------------- x4
E------------------------4444444444---	

Pause

End(fade out)
G------------------     
D------------------     
A------------------
E---4-6--4-6--4-6--

Thats it

	  

Search Paypal
auto scroll beats size up size down change color hide chords drawings
tab show chords e-chords YouTube Clip e-chords hide all tabs e-chords go to top tab