Good Charlotte

home > Good Charlotte

Girls & Boys (ver. 2) Bass Tab

Good Charlotte

Difficulty: AdvancedAdvanced

tuner correct add songbook print version text version save to e-mail
chordsukulelecavacokeyboardtabbassdrumsharmonicsflute Guitar Pro
chords

Girls & Boys (ver. 2)

  		

BAND: 
 Girls and Boys
ALBUM: The Young And The Hopeless
Instrument: Bass
Tuning: Standard
TAB BY: Imy Csongradi
Email addr: [email protected]



INTRO:

G|------------------
D|------------------
A|------------6-5--- x 2
E|-4-0-4-6--4-----6- 

VERSE:

G|---------------------------------------------------------
D|---------------------------------------------------------
A|---------------------------------------------------------
E|-404-66666-404-66666-404-66666-404-66666-666666666666666-

CHORUS:

G|----------------------------------
D|----------------------------------
A|-6-6-6-6-5-5-5-5------------------ x 2
E|-----------------4444444444444444-


INTRO:

G|------------------
D|------------------
A|------------6-5--- x 2
E|-4-0-4-6--4-----6- 

BREAK

G|------------------
D|------------------
A|------------6-5--- x 2
E|-4-0-4-6--4-----6- 

VERSE:

G|---------------------------------------------------------
D|---------------------------------------------------------
A|---------------------------------------------------------
E|-404-66666-404-66666-404-66666-404-66666-666666666666666-

CHORUS

G|----------------------------------
D|----------------------------------
A|-6-6-6-6-5-5-5-5------------------ x 4
E|-----------------4444444444444444-

BRIDGE
G|-----------------------
D|-----------------------
A|—---3-------6-5-------- x 3
E|--6---4-44------4-44---


G|-----------------------------------------------------
D|-----------------------------------------------------
A|---3-------------------------------------------------
E|-6---4-4-4-6-6-6-6-8-8-8-8-10-10-10-10-11-11-11-11---

CHORUS

G|----------------------------------
D|----------------------------------
A|-6-6-6-6-5-5-5-5------------------ x 4
E|-----------------4444444444444444-

BREAK

OUTRO:

G|-------------------
D|-------------------
A|------------------- x2
E|-4-6--4-6--4-6—4-6-

G|-----------------------------------------
D|-----------------------------------------
A|----------------------------------------- play untill fade out
E|-404-66666-404-66666-404-66666-404-66666-

	  

Search Paypal
auto scroll beats size up size down change color hide chords drawings
tab show chords e-chords YouTube Clip e-chords hide all tabs e-chords go to top tab