Good Charlotte

home > Good Charlotte

Girls & Boys Bass Tab

Good Charlotte

Difficulty: nolevelnolevel

tuner correct add songbook print version text version save to e-mail
chordsukulelecavacokeyboardtabbassdrumsharmonicsflute Guitar Pro
chords

Girls & Boys

  		


Boys And Girls
(<>..<>)

Intro   x2
G-----------------------
D-----------------------
A---------------6—5-----
E--4-0-4-6----4-----6---
Riff 1 x4          last time               
G-------------------|---------
D-------------------|---------
A-------------------|---------
E---4444---66666----|-4444444-

Chorus x2
G-------------------------------------
D-------------------------------------
A—6666666-5555555---------------------
E------------------------4444444444---
	
Intro  x5
G-----------------------
D-----------------------
A---------------6—5-----
E--4-0-4-6----4-----6---

Riff 1 x3            last time               
G-------------------|---------
D-------------------|---------
A-------------------|---------
E---4444---66666----|-4444444-

Chorus x4
G-------------------------------------
D-------------------------------------
A—6666666-5555555---------------------
E------------------------4444444444---

Bridge  x2
G-----------------------
D-----------------------
A—---3-------6-5--------
E--6---4---------4------

Chorus x4
G-------------------------------------
D-------------------------------------
A—6666666-5555555---------------------
E------------------------4444444444---	

REST

End(till fades out)
G------------------     Please Rate This Tabs.
D------------------     Thank You. (<>..<>)
A------------------
E---4-6--4-6--4-6--

	  

Search Paypal
auto scroll beats size up size down change color hide chords drawings
tab show chords e-chords YouTube Clip e-chords hide all tabs e-chords go to top tab