Good Charlotte

home > Good Charlotte

Girls And Boys Bass Tab

Good Charlotte

Difficulty: nolevelnolevel

tuner correct add songbook print version text version save to e-mail
chordsukulelecavacokeyboardtabbassdrumsharmonicsflute Guitar Pro
chords

Girls And Boys

  		


Written By: 
 
Tabbed By: Adam Doogan-Smith
E-mail: [email protected]

Almost all of the tabs for a 4-string bass for this song are wrong. This is 100%
correct. This song is actually played on a 5-string but if you tune your E to an Eb 
you can play it perfectly. Have Fun!

Slide Down: \

Drop Eb Tuning: Eb,A,D,G

Verse #1
 G-------------------------------------------I
 D-------------------------------------------I
 A---------------6-5-----------------5-6-----I
Eb---5-0-5-7---5-----7---5-0-5-7---5-----7---I

Pre-Chorus #1
 G------------------------------------------------------------------------------------I
 D------------------------------------------------------------------------------------I
 A---------------6-5-------------5-6-------------6-5-----------6-5--------------------I
Eb---5-0-5-7-7-7-----5-0-5-7-7-7-----5-0-5-7-7-7-----5-0-5-7-7-----7777777777777777---I

Chorus #1
 G----------------------------------------I
 D----------------------------------------I
 A---66666666-5555555---------------------I
Eb--------------------7\555555555555555---I

Pre-Chorus #2
 G-------------------------------------------------------------------------------------------------------I
 D-------------------------------------------------------------------66666666666666666-----------------------I
 A---------------6-5-------------5-6-------------6-5-------=---6-5---------------------------------------I
Eb---5-0-5-7-7-7-----5-0-5-7-7-7-----5-0-5-7-7-7-----5-0-5-7-7------7------------------------------------I

Chorus #2
 G------------------------------------I
 D------------------------------------I
 A------------------------------------I
Eb---0000000000000-5555555555555555---I

Solo
 G-----------------------I
 D-----------------------I
 A-----------------------I
Eb---2-4-0-000-4-2-0000--I

Chorus #3
 G-------------------------------------I
 D-------------------------------------I
 A---6-6-6-6-5-5-5-5-------------------I
Eb-------------------555555555555555---I

Ending #1
G------------------------------I
D------------------------------I
A------------------------------I
E---5-7----5-7----5-7----5-7---I

Ending #2
G-------------------------------------------------------------------------I
D-------------------------------------------------------------------------I
A-------------------------------------------------------------------------I
E---5-0-5-7-7-7-7-7---5-0-5-7-7-7-7---5-0-5-7-7-7-7-7---5-0-5-7-7-7-7-7---I

Verse #1       x1    Come in at 0:0862
Pre-Chorus #1  x1
Chorus #1      x2
Verse #1       x2
Pre-Chorus #1  x1
Chorus  #1     x2
Chorus #2      x1
Chorus #1      x1
Solo           x4    Play Bb 16 times after playing the solo 4 times.
Chorus #3      x2
Chorus #2      x1
Chorus #1      x1
Beginning Guitar
Ending #1      x2
Ending #2      x3

	  

Search Paypal
auto scroll beats size up size down change color hide chords drawings
tab show chords e-chords YouTube Clip e-chords hide all tabs e-chords go to top tab