Good Charlotte

home > Good Charlotte

Girls & Boys (ver. 3) Bass Tab

Good Charlotte

Difficulty: nolevelnolevel

tuner correct add songbook print version text version save to e-mail
chordsukulelecavacokeyboardtabbassdrumsharmonicsflute Guitar Pro
chords

Girls & Boys (ver. 3)

  		



Song : Girls And Boys
Band : 
Album : The Young And The Hopeless
Tabbed By : Lucky ([email protected])


This is a 4-String Version
And the real version is played with a 5-String
So of course it's not the real way to play it
But if you haven't got a 5-String, this tab could be nice for you

Turn your E string into a Eb


1st Verse
G :---------------------------------------------------------------
D :---------------------------------------------------------------
A :-------------------6-5----------------------------3-6----------
Eb:-5-0-5-7---------5-----7---------5-0-5-7--------5-----7--------

G :-----------------------------------------------------------------------------------------------
D :-----------------------------------------------------------------------------------------------
A :-------------6-5-------------6-5-------------6-5-----------6-5-3-------------------------------
Eb:-5-0-5-7-7-7-----5-0-5-7-7-7-----5-0-5-7-7-7-----5-0-5-7-7-------5-5-5-5-5-5-5-5-5-5-5-5-5-5-5-

1st Chorus
G :-----------------------------------------------------------------|X2
D :-----------------------------------------------------------------|X2
A :-6-6-6-6-6-6-6-6-5-5-5-5-5-5-5-5---------------------------------|X2
Eb:---------------------------------5-5-5-5-5-5-5-5-5-5-5-5-5-5-5-5-|X2

2nd Verse
G :---------------------------------------------------------------|X2
D :---------------------------------------------------------------|X2
A :-------------------6-5----------------------------3-6----------|X2
Eb:-5-0-5-7---------5-----7---------5-0-5-7--------5-----7--------|X2

G :-----------------------------------------------------------------------------------------------
D :-----------------------------------------------------------------6-6-6-6-6-6-6-6-6-6-6-6-6-6-6-
A :-------------6-5-------------6-5-------------6-5-----------6-5-6-------------------------------
Eb:-5-0-5-7-7-7-----5-0-5-7-7-7-----5-0-5-7-7-7-----5-0-5-7-7-------------------------------------

2nd Chorus
G :-----------------------------------------------------------------|X2
D :-----------------------------------------------------------------|X2
A :-6-6-6-6-6-6-6-6-5-5-5-5-5-5-5-5---------------------------------|X2
Eb:---------------------------------5-5-5-5-5-5-5-5-5-5-5-5-5-5-5-5-|X2

G :-----------------------------------------------------------------
D :-----------------------------------------------------------------
A :-----------------5-5-5-5-5-5-5-5---------------------------------
Eb:-0-0-0-0-0-0-0-0-----------------5-5-5-5-5-5-5-5-5-5-5-5-5-5-5-5-

G :-----------------------------------------------------------------
D :-----------------------------------------------------------------
A :-6-6-6-6-6-6-6-6-5-5-5-5-5-5-5-5---------------------------------
Eb:---------------------------------5-5-5-5-5-5-5-5-5-5-5-5-5-5-5-5-

Bridge
G :------------------------------------------------
D :------------------------------------------------
A :--------------6-------------------------6-------
Eb:-7-9--5--5-5----7--5--5-5--7-9--5--5-5----7--5--

G :------------------------------------------------------------------------
D :------------------------------------------------------------------------
A :--------------6---------------------------------------------------------
Eb:-7-9--5--5-5----7--5-------7-9--5--5-5--7-7-7-7-7-7-7-7-7-7-7-7-7-7-7-7-

3rd Chorus
G :-----------------------------------------------------------------|X2
D :-----------------------------------------------------------------|X2
A :-6---6---6---6---5---5---5---5-----------------------------------|X2
Eb:---------------------------------5-5-5-5-5-5-5-5-5-5-5-5-5-5-5-5-|X2

G :-----------------------------------------------------------------
D :-----------------------------------------------------------------
A :-----------------5-5-5-5-5-5-5-5---------------------------------
Eb:-0-0-0-0-0-0-0-0-----------------5-5-5-5-5-5-5-5-5-5-5-5-5-5-5-5-

G :-----------------------------------------------------------------
D :-----------------------------------------------------------------
A :-6-6-6-6-6-6-6-6-5-5-5-5-5-5-5-5---------------------------------
Eb:---------------------------------5-5-5-5-5-5-5-5-5-5-5-5-5-5-5-5-

Outro
G :-----------|X8|------------------|X8|
D :-----------|X8|------------------|X8|
A :-----------|X8|------------------|X8|
Eb:-5----7----|X8|--5-0-5-7-7-7-7-7-|X8|

	  

Search Paypal
auto scroll beats size up size down change color hide chords drawings
tab show chords e-chords YouTube Clip e-chords hide all tabs e-chords go to top tab