Good Charlotte

home > Good Charlotte

Girls & Boys Bass Tab

Good Charlotte

Difficulty: nolevelnolevel

tuner correct add songbook print version text version save to e-mail
chordsukulelecavacokeyboardtabbassdrumsharmonicsflute Guitar Pro
chords

Girls & Boys

  		

I dont think this is totally acurate but im only 12 wat can you excpet! (lol)


Intro/verse
G-----------------
D-----------------
A----------65-----
E-404-6--4---6----x2
Pre chorus
G-----------------
D-----------------
A-----------------
E-404-66666-------x4

G-----------------
D-----------------
A-----------------
E-4444444444444444
chorus
G------------------------------------
D------------------------------------
A-66666666-55555555------------------
E-------------------4444444444444444-x2
verse
G-----------------	
D-----------------
A----------65-----
E-404-6--4---6----

G-----------------
D-----------------
A----------65-----
E-404-6--4---6----

G-----------------	
D-----------------
A----------65-----
E-404-6--4---6----x2
Pre chorus
G-----------------
D-----------------
A-----------------
E-404-66666-------x4

G-----------------
D-----------------
A-----------------
E-4444444444444444

chorus
G------------------------------------
D------------------------------------
A-66666666-55555555------------------
E-------------------4444444444444444-x2

G-------------------------------------
D-------------------------------------
A----------66666666-------------------
E-66666666-----------4444444444444444-

G------------------------------------
D------------------------------------
A-66666666-55555555------------------
E-------------------4444444444444444-

Bridge
G-----------------------------------------------------
D-----------------------------------------------------                        
A-----6-666-----6-66-----6-666-----6-----6-666-----6--                         
E-4-6-------4-6------4-6-------4-6---4-6-------4-6----

G---------------------------------------------
D---------------------------------------------        
A-----6-666-8888-10101010-12121212-14141414---
E-4-6----------------------------------------- 
End chorus
G------------------------------------------
D------------------------------------------
A-6-6-6-6-5-5-5-5--------------------------
E-----------------4444444444444444---------x2

G-------------------------------------
D-------------------------------------
A----------66666666-------------------
E-66666666-----------4444444444444444-

G------------------------------------
D------------------------------------
A-66666666-55555555------------------
E-------------------4444444444444444-x2

Ending
G-------------I-------------------
D-------------I------------------- 
A-------------I-------------------
E-4~-6~-------I-404-66666---------

	  

Search Paypal
auto scroll beats size up size down change color hide chords drawings
tab show chords e-chords YouTube Clip e-chords hide all tabs e-chords go to top tab