Good Charlotte

home > Good Charlotte

Footlose Bass Tab

Good Charlotte

Difficulty: nolevelnolevel

tuner correct add songbook print version text version save to e-mail
chordsukulelecavacokeyboardtabbassdrumsharmonicsflute Guitar Pro
chords

Footlose

	  


Band:

Album:?

Tabbed by Kyle Gayne

Intro(bass enters at 0:06)
G:----------------|
D:----------------|
A:----------------|x9
E:-4-4-44---44-4--|

Verse
G:------------------|  |------------------|  |----------------|
D:------------------|  |------------------|  |----------------|
A:------------------|x4|-4~~~-------------|x2|----------------|x2
E:-4444444444444444-|  |------------------|  |-4-4-44---44-4--|

G:------------------------------------------------------------|
D:------------------------------------------------------------|
A:-4~~~------------5~~~------------6~~~----8~~~----9~~~----11-|x1
E:------------------------------------------------------------|

Chorus
G:-----------------------------53---|
D:-------------------334466------64-|
A:---334466--33446644---------------|x3
E:-44------44--------------4444-----|

G:--------------------------|
D:--------------------------|
A:---334466--33446644444444-|x3
E:-44------44---------------|

Verse 2
G:----------------|  |------------------|  |----------------|
D:----------------|  |------------------|  |----------------|
A:----------------|x6|-4~~~-------------|x2|----------------|x2
E:-4-4-44---44-4--|  |------------------|  |-4-4-44---44-4--|

G:-----------------------------------------------------------|
D:-----------------------------------------------------------|
A:-4~~~------------5~~~------------6~~~----8~~~----9~~~----9-|x1
E:-----------------------------------------------------------|

Chorus

Bridge(this is probly wrong)
G:------------------------------------------------------------------|
D:------------------------------------------------------------------|
A:------------------------------------------------------------------|x3
E:-4444444444444444444444444444444444444444444444444444444444444444-|

G:------------------------------------------------------------------|
D:------------------------------------------------------------------|
A:-2222222222222222444444444444444466666666666666666666666666666666-|x1
E:------------------------------------------------------------------|

Chorus
G:-----------------------------53---|
D:-------------------334466------64-|
A:--------6--33446644---------------|x1
E:-44------44--------------4444-----|

G:-----------------------------53---|
D:-------------------334466------64-|
A:---334466--33446644---------------|Repeat until the end
E:-44------44--------------4444-----|

	  

there isn't a video lesson for this song

request
Search
auto scroll beats size up size down change color hide chords drawings
tab show chords e-chords YouTube Clip e-chords hide all tabs e-chords go to top tab