Good Charlotte

home > Good Charlotte

Festival Song (ver. 3) Bass Tab

Good Charlotte

Difficulty: nolevelnolevel

tuner correct add songbook print version text version save to e-mail
chordsukulelecavacokeyboardtabbassdrumsharmonicsflute Guitar Pro
chords

Festival Song (ver. 3)

  		

 
 
Album: Good Charlotte
Transcribed By: AlanTheWise ([email protected])

This is all in standard tuning and its a really easy song. There are only a few different
riffs that you play throughout the song so it should be really easy to figure out. There
are only a couple fills thrown in and I've tabbed the ones taht arn't really obvious. This
is a really cool song and I hope you enjoy it.

Verse Riff
G:--------------------------------------------
D:--------------------------------------------
A:--5-------------------5--------------------- repeat!
E:-------5-5-5-3--3-3-5------5-5-5-3--3-3-5---

Bridge (they say there's not a chance for me) 
G:-------------------------------------|
D:-------------------------------------|
A:-------------------------------------|
E:--5-5-5-5-5-5-5-5-5-5-5-5-5-5-5-5-5--|

Chrous Riff
G:---------------------------------------------------
D:---------------------------------------------------
A:--5--5--5-5-5--------------------------------------
E:--------------5--5--5-5-5-3--3--3-3-3-5--5--5-5-5--

G:------------------------------------------------------|
E:------------------------------------------------------|
A:--5--5--5-5-5-----------------------------------------|
E:--------------5--5--5-5-5-7--7--7-7-7-8-8-8-5--5-5-5--|

Interlude (nooooo future)
G:-----------------------------------------------------
D:-----------------------------------------------------
A:-----------------------------------------------------
E:--7--7--7--7--5--5--5--5--3--3--3--3--5--5--5--5-----

G:-----------------------------------------------------
D:-----------------------------------------------------
A:------------------------------------------------5-5--
E:--7--7--7--7--5--5--5--5--3--3--3--3--5--5--5-7------

G:-----------------------------------------------------
D:-----------------------------------------------------
A:------------------------------------------------5-5--
E:--7--7--7--7--5--5--5--5--3--3--3--3--5--5--5-7------

G:-----------------------------------------------------
D:-----------------------------------------------------
A:-----------------------------------------------------
E:--7-7-7-7-7-7-7-7-5-5-5-5-5-5-5-5-3-3-3-3-3-3-3-3----

G:------------------------------------|
D:------------------------------------|
A:------------------------------------|
E:--0-0-0-0-0-0-0-0-0-0-0-0-0-0-0-0-0-|

Outro
G:------------------------------------------------------------|
D:------------------------------------------------------------|
A:--3-3-3----------3-3-3----------3-3-3----------3-3-3--------|
E:--------5--5-5-5-------5--5-5-5-------5--5-5-5-------3------|


And you're done! Whee! Send questions, comments, hate mail, or whatever to...
[email protected]

Go buy Loudermilk's "The Red Record" cause it's finally out in stores and it is AWESOME!!!

	  

Search Paypal
auto scroll beats size up size down change color hide chords drawings
tab show chords e-chords YouTube Clip e-chords hide all tabs e-chords go to top tab