Good Charlotte

home > Good Charlotte

Festival Song (ver. 2) Bass Tab

Good Charlotte

Difficulty: nolevelnolevel

tuner correct add songbook print version text version save to e-mail
chordsukulelecavacokeyboardtabbassdrumsharmonicsflute Guitar Pro
chords

Festival Song (ver. 2)

  		


Band:
Tab By: TAD

PART 1
G:-------------------
D:-------------------
A:-555-555-----------
E:--------555-3-333--

PART 2
G:-------------------------------------
D:-------------------------------------
A:-55555555----------------------------
E:---------55555555-33333333-55555555--

PART 3
G:---------------------------------------
D:---------------------on the 6th time---
A:-5~------------------------------------
E:----555-3-333-------55555555-33333333--

PART 4
G:-------------------------------------------------------------------
D:-------------------------------------------------------------------
A:--------------------------------------44-55-----------------44-55--
E:-7777-5555-3333-5555-7777-5555-3333-55-----7777-5555-3333-55-------

PART 5
G:-----------------------------------------------
D:-----------------------------------------------
A:-----------------------------------------------
E:-77777777-55555555-33333333-11111111-00000000--

PART 6
G:----------------------
D:----------------------
A:----------------------
E:-7-7-5--7-7-5--7-7-3--

order
PART 1 x10
PART 2 x2
PART 1 x2
PART 3 x6
PART 2 x2
PART 4 x3
PART 5 x1
REST   
PART 2 x4
PART 6 x1

thats it.. if you like it.. rate it!!!!.thank you!!!!

	  

Search Paypal
auto scroll beats size up size down change color hide chords drawings
tab show chords e-chords YouTube Clip e-chords hide all tabs e-chords go to top tab