Good Charlotte

home > Good Charlotte

Festival Song Bass Tab

Good Charlotte

Difficulty: nolevelnolevel

tuner correct add songbook print version text version save to e-mail
chordsukulelecavacokeyboardtabbassdrumsharmonicsflute Guitar Pro
chords

Festival Song

  		

  
Tabbed by Kyle Hi
Tuning  Standard

Guitar Starts come in on 3rd time with drums

G  |---------------------------------------
D  |--------------------------------------- 10x
A  |-5-5-5--5-5-5-----------------------
E  |----------------5-5-5--3--3-3-3-----

G  |-------------------
D  |------------------- 1x
A  |-55555555555-
E  |-------------------

G  |-----------------------------------------------------
D  |----------------------------------------------------- 2x
A  |-55555555----------------------------------------
E  |--------------55555555-33333333-55555555-

G  |---------------------------------------
D  |--------------------------------------- 2x
A  |-5-5-5--5-5-5-----------------------
E  |----------------5-5-5--3--3-3-3-----

Bass Only: first 4x

G  |---------------------------------------
D  |--------------------------------------- 8x
A  |-5r------------------------------------
E  |----------------5-5-5--3--3-3-3-----

G  |-----------------------------
D  |----------------------------- 1x
A  |-----------------------------
E  |-55555555555------------

G  |--------------------------------
D  |-------------------------------- 3x
A  |--------------------------------
E  |-7777-5555-3333-5555----

G  |----------------------------------------------------
D  |---------------------------------------------------- 1x
A  |-----------------------------------------------------
E  |-77777777-55555555-33333333-00000000-

G  |-------------------------
D  |------------------------- 2x
A  |-5r---------------------
E  |------5r---3r---5r-----

G  |----------------
D  |---------------- 1x
A  |---------------
E  |-55--3---------

G  |-----------------------------------------------------
D  |----------------------------------------------------- 4x
A  |-55555555----------------------------------------
E  |--------------55555555-33333333-55555555-

ENDING

G  |-------------------------
D  |-------------------------
A  |-------------------------
E  |-77-5---77-5---77-3-

The whole song written out for you
Any Questions or comments email me at [email protected]

	  

Search Paypal
auto scroll beats size up size down change color hide chords drawings
tab show chords e-chords YouTube Clip e-chords hide all tabs e-chords go to top tab