Good Charlotte

home > Good Charlotte

Face The Strange Bass Tab

Good Charlotte

Difficulty: nolevelnolevel

by gustsilva

tuner correct add songbook print version text version save to e-mail
chordsukulelecavacokeyboardtabbassdrumsharmonicsflute Guitar Pro
chords

Face The Strange

  		This is how I play it. 

Intro: 

g|----------------|----------------|----------------|----------------| 
d|----------------|----------------|----------------|----------------| 
A|----------------|----------------|----------------|----------------| 
E|----------------|----------------|3-3--1-1----4-4-|-3-3----5---5---| 

									Save me 

g|----------------|----------------|----------------|----------------| 
d|----------------|----------------|----------------|----------------| 
A|----------------|----------------|----------------|----------------| 
E|3-3--1-1----4-4-|-3-3----5---5---|3-3--1-1----4-4-|-3-3----5---5---| 

Vers 1: 

g|----------------|----------------|----------------|----------------| 
d|----------------|----------------|----------------|----------------| 
A|----------------|----------------|----------------|----------------| 
E|5---5---5---5---|5---5---5---5---|3---3---3---3---|3---3---3---3---| 

Lately I've been feeling low		I've been feeling alone 

g|----------------|----------------|----------------|----------------| 
d|----------------|----------------|----------------|----------------| 
A|----------------|----------------|----------------|----------------| 
E|1---1---1---1---|1---1---1---1---|3-3--1-1----4-4-|-3-3----5---5---| 

the things I used to be			I miss the things I used to see 

g|----------------|----------------|----------------|----------------| 
d|----------------|----------------|----------------|----------------| 
A|----------------|----------------|----------------|----------------| 
E|5-5-5-5-5-5-5-5-|5-5-5-5-5-5-5-5-|3-3-3-3-3-3-3-3-|3-3-3-3-3-3-3-3-| 

I need something again 

g|----------------|----------------|----------------|----------------| 
d|----------------|----------------|----------------|----------------| 
A|----------------|----------------|----------------|----------------| 
E|1-1-1-1-1-1-1-1-|1-1-1-1-1-1-1-1-|3-3--1-1----4-4-|-3-3----5---5---| 

My oldest friends these cigarrettes can't cure  It just ain't what I'm looking for 

Refrain: 

g|----------------|----------------|----------------|----------------| 
d|----------------|----------------|----------------|----------------| 
A|5-5-5-5-5-5-5-5-|3-3-3-3-3-3-3-3-|1-1-1-1-1-1-1-1-|----------------| 
E|----------------|----------------|----------------|3-3-3-3-3-3-3-3-| 

We all need a little change 

g|----------------|----------------|----------------|----------------| 
d|----------------|----------------|----------------|----------------| 
A|5-5-5-5-5-5-5-5-|3-3-3-3-3-3-3-3-|1-1-1-1-1-1-1-1-|----------------| 
E|----------------|----------------|----------------|3-3-3-3-3-3-3-3-| 

I guess it's time to face the strange 

g|----------------|----------------|----------------|----------------| 
d|----------------|----------------|----------------|----------------| 
A|5-5-5-5-5-5-5-5-|3-3-3-3-3-3-3-3-|1-1-1-1-1-1-1-1-|----------------| 
E|----------------|----------------|----------------|3-3-3-3-3-3-3-3-| 

I can't, I can't, I can't, I can't,          I can't get my mind right 

g|----------------|----------------|----------------|----------------| 
d|----------------|----------------|----------------|----------------| 
A|5-5-5-5-5-5-5-5-|3-3-3-3-3-3-3-3-|1-1-1-1-1-1-1-1-|----------------| 
E|----------------|----------------|----------------|3-3-3-3-3-3-3-3-| 

I need, I need, I need, I need               Something to get me right 

g|----------------|----------------| 
d|----------------|----------------| 
A|----------------|----------------| 
E|3-3--1-1----4-4-|-3-3----5---5---| 


Vers 2: 

g|----------------|----------------|----------------|----------------| 
d|----------------|----------------|----------------|----------------| 
A|----------------|----------------|----------------|----------------| 
E|5---5---5---5---|5---5---5---5---|3---3---3---3---|3---3---3---3---| 

Where is my future                 It used to be in front of me 

g|----------------|----------------|----------------|----------------| 
d|----------------|----------------|----------------|----------------| 
A|----------------|----------------|----------------|----------------| 
E|1---1---1---1---|1---1---1---1---|3-3--1-1----4-4-|-3-3----5---5---| 

Misery's my company			Living in what used to be 

g|----------------|----------------|----------------|----------------| 
d|----------------|----------------|----------------|----------------| 
A|----------------|----------------|----------------|----------------| 
E|5-5-5-5-5-5-5-5-|5-5-5-5-5-5-5-5-|3-3-3-3-3-3-3-3-|3-3-3-3-3-3-3-3-| 

And now that I'm right  , now that I'm clean,  now that I surrender 

g|----------------|----------------|----------------|----------------| 
d|----------------|----------------|----------------|----------------| 
A|----------------|----------------|----------------|----------------| 
E|1-1-1-1-1-1-1-1-|1-1-1-1-1-1-1-1-|3-3--1-1----4-4-|-3-3----5---5---| 

it seems that all I want's to be back where I started from 

Refrain: 

g|----------------|----------------|----------------|----------------| 
d|----------------|----------------|----------------|----------------| 
A|5-5-5-5-5-5-5-5-|3-3-3-3-3-3-3-3-|1-1-1-1-1-1-1-1-|----------------| 
E|----------------|----------------|----------------|3-3-3-3-3-3-3-3-| 

We all need a little change 

g|----------------|----------------|----------------|----------------| 
d|----------------|----------------|----------------|----------------| 
A|5-5-5-5-5-5-5-5-|3-3-3-3-3-3-3-3-|1-1-1-1-1-1-1-1-|----------------| 
E|----------------|----------------|----------------|3-3-3-3-3-3-3-3-| 

I guess it's time to face the strange 

g|----------------|----------------|----------------|----------------| 
d|----------------|----------------|----------------|----------------| 
A|5-5-5-5-5-5-5-5-|3-3-3-3-3-3-3-3-|1-1-1-1-1-1-1-1-|----------------| 
E|----------------|----------------|----------------|3-3-3-3-3-3-3-3-| 

I can't, I can't, I can't, I can't,          I can't get my mind right 


g|----------------|----------------|----------------|----------------| 
d|----------------|----------------|----------------|----------------| 
A|5-5-5-5-5-5-5-5-|3-3-3-3-3-3-3-3-|1-1-1-1-1-1-1-1-|----------------| 
E|----------------|----------------|----------------|3-3-3-3-3-3-3-3-| 

I need, I need, I need, I need               Something to get me right 

g|----------------|----------------| 
d|----------------|----------------| 
A|3-3-3-3-3-3-3-3-|1-1-1-1-1-1-1-1-| 
E|----------------|----------------| 

Something to get me right 

Vers 3: 
													\=slide down 
/=slide up 
g|----------------|----------------|----------------|----------------| 
d|----------------|----------------|----------------|----------------| 
A|----------------|----------------|----------------|----------------| 
E|5---5---5\------|3---3---3\------|1---1---1/------|3---3---3/------| 

I think it's time to change the company 
I keep the company I keep don't keep me company 

g|----------------|----------------|----------------|----------------| 
d|----------------|----------------|----------------|----------------| 
A|----------------|----------------|----------------|----------------| 
E|5---5---5\------|3---3---3\------|1---1---1/------|3---3---3/------| 

And all my dreams where right out there in front of me 
It's sort of like it gripped the darkest part of me 

g|----------------|----------------|----------------|----------------| 
d|----------------|----------------|----------------|----------------| 
A|----------------|----------------|----------------|----------------| 
E|5---5---5\------|3---3---3\------|1---1---1/------|3---3---3/------| 

And all I ever really wanted was to make a change 
I never thought they'd keep me locked up in these chains 

g|----------------|----------------|----------------|----------------| 
d|----------------|----------------|----------------|----------------| 
A|----------------|----------------|----------------|----------------| 
E|5---5---5\------|3---3---3\------|1---------------|----------------| 

I never thought my life would end up this strange 

Bridge 

g|----------------|----------------|----------------|----------------| 
d|----------------|----------------|----------------|----------------| 
A|----------------|----------------|----------------|----------------| 
E|----------------|----------------|----------------|----------------| 

We all need a little change 

g|----------------|----------------|----------------|----------------| 
d|----------------|----------------|----------------|----------------| 
A|----------------|----------------|----------------|----------------| 
E|----------------|----------------|----------------|----------------| 

I guess it's time to face the strange 

Refrain: 

g|----------------|----------------|----------------|----------------| 
d|----------------|----------------|----------------|----------------| 
A|5-5-5-5-5-5-5-5-|3-3-3-3-3-3-3-3-|1-1-1-1-1-1-1-1-|----------------| 
E|----------------|----------------|----------------|3-3-3-3-3-3-3-3-| 

I can't, I can't, I can't, I can't           I can't get my mind right 


g|----------------|----------------|----------------|----------------| 
d|----------------|----------------|----------------|----------------| 
A|5-5-5-5-5-5-5-5-|3-3-3-3-3-3-3-3-|1-1-1-1-1-1-1-1-|----------------| 
E|----------------|----------------|----------------|3-3-3-3-3-3-3-3-| 

I need, I need, I need, I need               Something to get me right 

g|----------------|----------------|----------------|----------------| 
d|----------------|----------------|----------------|----------------| 
A|3-3-3-3-3-3-3-3-|1-1-1-1-1-1-1-1-|----------------|----------------| 
E|----------------|----------------|3-3--1-1----4-4-|-3-3----5---5---| 

Something to get me right 

g|----------------|----------------| 
d|----------------|----------------| 
A|----------------|----------------| 
E|3-3--1-1----4-4-|-3-3----5---5---| 
	  

Search Paypal
auto scroll beats size up size down change color hide chords drawings
tab show chords e-chords YouTube Clip e-chords hide all tabs e-chords go to top tab