Good Charlotte

home > Good Charlotte

East Coast Anthem (ver. 3) Bass Tab

Good Charlotte

Difficulty: nolevelnolevel

tuner correct add songbook print version text version save to e-mail
chordsukulelecavacokeyboardtabbassdrumsharmonicsflute Guitar Pro
chords

East Coast Anthem (ver. 3)

  		



Tabbed by:nofxboy9

Intro(Play 2x)
G|----------------------------------------------------
D|----------------------------------------------------
A|-0000---------3333---0000---------33333--5--3-------
E|---------3333------------------3333-----------------

Chorus
G|-----------------------------------------------------------------------------
D|-----------------------------------------------------------------------------
A|------3333---------------------333-------------3333-------------------3333---
E|-1111-------3333--5-3--1111--------3333--1111--------3333--5-3--1111-------0000

G|--------------------------------------------------------
D|--------------------------------------------------------
A|-000000--------000000-----------000000-----------0------
E|--------333333-----------333333-----------333333---------

Play intro(1x)

G|--------------------------------------------------------------
D|--------------------------------------------------------------
A|-0000-------3333--5-3--0000-------3333--5-3---------
E|-------3333-----------------3333---------------------

Play Chorus(1x)

G|----------------------------------------------------------------------
D|-----------------------------------------------------7-5--------------
A|-0000-------0000--------0000-------0000-----0-3-5-7-------------------
E|--------3333-------3333--------3333------33---------------------------

G|---------------------------------------------------
D|--777777-55--777777--55--777777-55--77777777-------
A|---------------------------------------------------
E|---------------------------------------------------

G|------------------------------------------------------
D|------------------------------------7777--55-7-5------
A|-------------------------00000000---------------------
E|--111111--3333333-------------------------------------

G|-----------------------------------
D|-----------------------------------
A|-----------------------------------
E|-111111-333333-000000--------------
Play chorus

Question,comments or suggestion please email me at [email protected]
Please rate this tab

	  

Search Paypal
auto scroll beats size up size down change color hide chords drawings
tab show chords e-chords YouTube Clip e-chords hide all tabs e-chords go to top tab