Good Charlotte

home > Good Charlotte

Change (ver. 2) Bass Tab

Good Charlotte

Difficulty: nolevelnolevel

tuner correct add songbook print version text version save to e-mail
chordsukulelecavacokeyboardtabbassdrumsharmonicsflute Guitar Pro
chords

Change (ver. 2)

  		

Pay attention kids.  This is how you actually play “”.  I think some of your basses may be out of tune

Intro/Verse
G-------------------|
D-------------------|
A-------------------|
E-0-0/8-8\0-0/88-8\-| x 3

Prechorus
G--------------------------------------------------------------------
D--------------------------------------------------------------------
A-5-0h55-5\0-------------5-0h55-5\0------------5-0h55-5\0------------
E------------5-0h55-5/10------------5/17-15-12------------5-0h5p0h5-

G-------------------|
D-------------------|
A------3-3-3/55-0h5-|
E-5/8-3-3-----------|

Chorus
G------------------------------|    G-------------------------|
D------------------------------|    D-------------------------|
A-----------333------------555-|    A------------333----------|
E-3-2h3-2233----5-0h5-0055-----| x3 E-3-2h3-2233-----5-0h5-55-|

Verse x 2
Prechorus
Chorus x 8

End on E:3

	  

Search Paypal
auto scroll beats size up size down change color hide chords drawings
tab show chords e-chords YouTube Clip e-chords hide all tabs e-chords go to top tab