Good Charlotte

Bloody Valentine

Good Charlotte

bass

save to print version add songbook text version e-mail correct tuner
chordsukulelecavacokeyboardtabbassdrumsharmonicaflute Guitar Pro
close

there isn't a video lesson for this song

chords

Bloody Valentine

	  		

My 

Verse
G|-----------------------------------|
D|-----------------------------------|x3
A|-----------------------------------|
E|-5-5-5-5-5-5-5-2-2-0-0-0-0-0-0-0-0-|

G|---------------------------|
D|---------------------------|
A|-5--5--5--5--5--5--5-5-5-5-|
E|---------------------------|

then play part A 3x
G|---------------------------------|
D|---------------------------------|
A|-5-5-5-5-5-5-5-5-5-5-5-5-5-5-5-5-|
E|---------------------------------|

Chorus 
----------------------------------------------------------------------
---------------------------------------------------------------------x2
5~-2-4-5~-5--5-5------------7-7-7-7-7/-5-5-5-5-5-5-5-5-5-5-5-5-5-5-5-5-
------------------2-2-2-2-2/-------------------------------------------

Part B (Oh my love...)
G|----------------------------------------------------------------|
D|----------------------------------------------------------------|x4
A|------------------------------------------------5-5-5-5-5-5-5-5-|
E|-5-5-5-5-5-5-5-5-0-0-0-0-0-0-0-0-2-2-2-2-2-2-2-2----------------|

Bridge (He dropped you off...)
G|--------------|
D|--------------| 
A|---------5~~~-|
E|-5~~-0~~------|

G|-------------|
D|-------------|    
A|---------5~~~|  
E|-5~~-0~~-----|

Ending (From the last chorus riff)
G|-----------------------------------------------------------------|
D|-----------------------------------------------------------------|
A|-----------------------------------------------------------------|
E|-5-5-5-5-5-5-5-5-0-0-0-0-0-0-0-0-2-2-2-2-2-2-2-2-2-2-2-2-2-2-2-2-|
then
G|-----------------|
D|-----------------|x8
A|-5-5-5-5-5-5-5-5-|
E|-----------------|

		  

auto scroll beats size up size down change color hide chords drawings
tab show chords e-chords YouTube Clip e-chords hide all tabs e-chords go to top tab

share