Good Charlotte

home > Good Charlotte

A New Beginning Bass Tab

Good Charlotte

Difficulty: nolevelnolevel

tuner correct add songbook print version text version save to e-mail
chordsukulelecavacokeyboardtabbassdrumsharmonicsflute Guitar Pro
chords

A New Beginning

  		


Artist - 
Song - 
Album - The Young And The Hopeless (2003)
Notes - Standard Tuning EADG
Tabbed By - James Hill [email protected]

36 seconds wait until rock kicks in

Main Part
G|----------------|----------------|----------------|----------------|
D|----------------|----------------|----------------|----------------|
A|44-444-444-444-4|77-777-777-777-7|99-999-999-999-9|----------------|
E|----------------|----------------|----------------|55-555-555-555-5|

G|----------------|----------------|----------------|----------------|
D|----------------|----------------|----------------|----------------|
A|44-444-444-444-4|77-777-777-777-7|----------------|----------------|
E|----------------|----------------|55-555-555-555-5|44-444-444-444-4|

G|----------------|----------------|----------------|----------------|
D|----------------|----------------|----------------|----------------|
A|44-444-444-444-4|77-777-777-777-7|99-999-999-999-9|----------------|
E|----------------|----------------|----------------|55-555-555-555-5|

G|----------------|----------------|----------------|----------------|
D|----------------|----------------|----------------|----------------|
A|44-444-444-444-4|----------------|----------------|----------------|
E|----------------|55-555-555-555-5|22-222-222-222-2|44-444-444-444-4|

Bridge Section
G|----------------|
D|----------------|
A|----------------|
E|5--5--5---5-5-2-|x4

Then the ending
G|----------------|----------------|----------------|----------------|
D|----------------|----------------|----------------|----------------|
A|44-444-444-444-4|77-777-777-777-7|99-999-999-999-9|----------------|
E|----------------|----------------|----------------|55-555-555-555-5|

G|----------------|----------------|----------------|----------------|
D|----------------|----------------|----------------|----------------|
A|44-444-444-444-4|55-555-555-555-5|77-777-777-777-7|99-999-999-999-9|
E|----------------|----------------|----------------|----------------|

G|----------------|
D|----------------|
A|9999999999999---|
E|----------------|

	  

Search Paypal
auto scroll beats size up size down change color hide chords drawings
tab show chords e-chords YouTube Clip e-chords hide all tabs e-chords go to top tab