Goo Goo Dolls

home > Goo Goo Dolls

Lazy Eye Bass Tab

Goo Goo Dolls

Difficulty: nolevelnolevel

tuner correct add songbook print version text version save to e-mail
chordsukulelecavacokeyboardtabbassdrumsharmonicsflute Guitar Pro
chords

Lazy Eye

  		

Album ~ Batman & Robin Soundtrack, but it can also be found on the Iris 
  

Return to Music X

Music X Bass Tab

    
Artist ~ 
Song ~  (bass)
Album ~ Batman & Robin Soundtrack, but it can also be found on the Iris 
    
import.
Tabbed By ~ Erin

This is one of the first songs I learned how to play on the bass. It's pretty 
easy, but you should have the CD handy to get the timing down. This is also 
tabbed for standard tuning, but they play it a half-step down.

Intro: No Bass (5 or 6 bars)

G ------------------|------------------
D ------------------|------------------
A ------------------|------------------
E --0-0-0-0-0-0-0-0-|--0-0-0-0-0-0-0-0-

(Fig. 1) 4x
G ----------------------------|-----------------------
D ----------------------------|-----------------------
A -5h7---7-7--7-7--7-7--7-7--7-7---|---------3--3-3-3-3
E ----------------------------|--3--3-3---------------

(Verse)
G ------------------------|-----------------
D ------------------------|-----------------
A ------------------------|--3--3-------x-x-
E --3-3-------------------x-x-|--------------

G ------------------------|-----------------
D ------------------------|-----------------
A ------------------------|--3--3-----3---3-------
E --3-3------------------x-x|----------------

Go back to Fig. 1 play 2x

Play verse

Pre-chorus (Fig. 2)
G -------------------------|---------------------------
D -------------------------|---------------------------
A -5--5--5--5--5--5--5--5--|-7--7--7--7--7--7--7--7--
E -------------------------|---------------------------

G -------------------------|--------------------------
D -------------------------|--------------------------
A --3--3--3--3--3--3-----3--|-3--3--3--3--3--3--3--3--

E -------------------------|--------------------------
G -------------------------|--------------------------
D -------------------------|--------------------------
A -5--5--5--5--5--5--5--5--|-7--7--7--7--7--7--7--7--
E -------------------------|-------------------------- 

G -------------------------|--------------------------
D -------------------------|--------------------------
A -3--3--3--3--3--3-----3--|-3--3--3--3--3-----5--5-
E -------------------------|--------------------------

   Chorus
(Fig. 1 4x)

(Verse)

(Verse)

(Pre-chorus)

(Chorus)

Guitar Solo ~ play the last measure of Fig. 1 the rest on a long low E

(Pre-chorus)

(Chorus)

(Chorus)

	  

Search Paypal
auto scroll beats size up size down change color hide chords drawings
tab show chords e-chords YouTube Clip e-chords hide all tabs e-chords go to top tab