Goo Goo Dolls

home > Goo Goo Dolls

Iris city Of Angels Soundtrack Bass Tab

Goo Goo Dolls

Difficulty: BeginnerBeginner

tuner correct add songbook print version text version save to e-mail
chordsukulelecavacokeyboardtabbassdrumsharmonicsflute Guitar Pro
chords

Iris city Of Angels Soundtrack

  		


Iris (City Of Angels Soundtrack)
Dropped D Tunning

Intro:(don’t play)

Verse: "and i'd give up forever..."
G--------------------------------------------------------------------
D--------------------------------------------------------------------
A--5---7-------------------------------------------------------------
D----------5---------------------------------------------------------

G--------------------------------------------------------------------
D--------------------------------------------------------------------
A-----2-----0--------------------------------------------------------
D----------------5---------------------------------------------------
                                                              x4

Chorus: "and i don't want the world..."
G--------------------------------------------------------------------
D--------------------------------------------------------------------
A-----2-----0--------------------------------------------------------
D---------------5----------------------------------------------------
                                                            x4

G-------------------------------------------------------------------
D-------------------------------------------------------------------
A----2------5-------------------------------------------------------
D--------------5-----5p4-0------------------------------------------

G-------------------------------------------------------------------
D-------------------------------------------------------------------
A----2------5-------------------------------------------------------
D--------------5--4---2---------------------------------------------

verse: "and you can fight the tears..."
G----------------------------------------------------------------
D----------------------------------------------------------------
A--5----7--------------------------------------------------------
D------------5---------------------------------------------------
                                                          
G--------------------------------------------------------------------
D--------------------------------------------------------------------
A-----2-----0--------------------------------------------------------
D----------------5---------------------------------------------------
								x2

Chorus: "and i don't want the world..."
G--------------------------------------------------------------------
D--------------------------------------------------------------------
A-----2-----0--------------------------------------------------------
D---------------5----------------------------------------------------
                                                            x4

instrumental part:
G----------------------------------------------------------------
D----------------------------------------------------------------
A-----2-----4-----5-----2-----0----------------------------------
D-----------------------------------5----------------------------
                                                            x2
G----------------------------------------------------------------
D----------------------------------------------------------------
A--2-2-2-2--2-2-2-2--2-2-----------------------------------------
D------------------------5--5-5-5-5-5----------------------------
							    x3
G----------------------------------------------------------------
D---------------------------------------------------------2------
A--2-2-2-2--2-2-2-2--2-2-------------2~---------2~--2-4-5---5-4--
D------------------------5~--4~--5~-----5~--4~-------------------

G----------------------------------------------------------------
D----------------------------------------------------------------
A-------------2~--2-0----------2~--------------------------------
D-----5~--4~----------5-4-2-0------------------------------------

Chorus: "and i don't want the world..."
G--------------------------------------------------------------------
D--------------------------------------------------------------------
A-----2-----0--------------------------------------------------------
D---------------5----------------------------------------------------
					X10 
(there's a break after the 4th time, 
just keep playing G then go back to chorus)

G-------------------------------------------------------------------------
D-------------------------------------------------------------------------
A-----2-----0---2----4----5----2-----0--------2----4---5----2----0--------
D------------------------------------------5---------------------------5--

	  

Search Paypal
auto scroll beats size up size down change color hide chords drawings
tab show chords e-chords YouTube Clip e-chords hide all tabs e-chords go to top tab