Goo Goo Dolls

home > Goo Goo Dolls

I'm Awake Now Bass Tab

Goo Goo Dolls

Difficulty: nolevelnolevel

by gustsilva

tuner correct add songbook print version text version save to e-mail
chordsukulelecavacokeyboardtabbassdrumsharmonicsflute Guitar Pro
chords

I'm Awake Now

  		
Intro 
G|---------------|--------------------|--------------------|--------------------| 
D|------------2--|--4\2------------2--|-----------------2--|--4\2------------2--| 
A|---------------|--------------------|--------------------|--------------------| 
E|--4----2-------|-------4----2-------|--2----4----2-------|-------4----2-------| 

G|--------| 
D|--------| 
A|--------| 
E|--2--2--| 

Verse 
G|----------------------------------------------| 
D|----------------------------------------------| X2 
A|------------------4-6---7--7--7--7--7----7-7--| 
E|--4--4--4--4--4-------------------------------| 

Chorus 
G|-------------------|-------------------|------------------------------|-------| 
D|-------------------|-------------------|------------------------------|-------| 
A|-------------------|-------------------|------------------------------|-------| 
E|--7-7-7-7-7-7-7-7--|--6-6-6-6-6-6-6-6--|--4-4-4-4-4-4-4-4-4-4-4-4-4-4-|--2-2--| 

Verse 
G|----------------------------------------------| 
D|----------------------------------------------|  
A|------------------4-6---7--7--7--7--7----7-7--| 
E|--4--4--4--4--4-------------------------------| 

Chorus 
G|-------------------|-------------------|------------------------------|-------| 
D|-------------------|-------------------|------------------------------|-------| 
A|-------------------|-------------------|------------------------------|-------| 
E|--7-7-7-7-7-7-7-7--|--6-6-6-6-6-6-6-6--|--4-4-4-4-4-4-4-4-4-4-4-4-4-4-|--2-2--| 

Bridge - "I'm Awake Now" 
G|-------------------|-------------------|-------| 
D|-------------------|-------------------|-------| 
A|----------------7--|----------------7--|-------| 
E|--4------2---------|--4------2---------|--2-2--| 

Verse 
G|----------------------------------------------| 
D|----------------------------------------------| X2 
A|------------------4-6---7--7--7--7--7----7-7--| 
E|--4--4--4--4--4-------------------------------| 

Chorus 
G|-------------------|-------------------|------------------------------|-------| 
D|-------------------|-------------------|------------------------------|-------| 
A|-------------------|-------------------|------------------------------|-------| 
E|--7-7-7-7-7-7-7-7--|--6-6-6-6-6-6-6-6--|--4-4-4-4-4-4-4-4-4-4-4-4-4-4-|--2-2--| 

Verse 
G|----------------------------------------------| 
D|----------------------------------------------|  
A|------------------4-6---7--7--7--7--7----7-7--| 
E|--4--4--4--4--4-------------------------------| 

Chorus 
G|-------------------|-------------------|------------------------------|-------| 
D|-------------------|-------------------|------------------------------|-------| 
A|-------------------|-------------------|------------------------------|-------| 
E|--7-7-7-7-7-7-7-7--|--6-6-6-6-6-6-6-6--|--4-4-4-4-4-4-4-4-4-4-4-4-4-4-|--2-2--| 

Bridge 2 
G|-------------------|----------------------------------------| 
D|-------------------|----------------------------------------| 
A|----------------7--|----------------7------7--6---4---------| 
E|--4------2---------|--4------2------------------------2-2\--| 

G|-------------------|-------------------|--------| 
D|-------------------|-------------------|--------| 
A|----------------7--|----------------7--|--------| 
E|--4------2---------|--4------2---------|--4~~~--| 

G|----------|-----------------------|-------------| 
D|----------|--2-----4--------------|--2----------| 
A|----------|-----------------------|-------------| 
E|--11\2/4--|--------------4-----2--|--------2-2--| 

Outro 
G|------------------------|-----------------------| 
D|------------------------|-----------------------| X3 
A|--7--7--7--7--7---------|-----------------------| 
E|-------------------2-2--|-4--4--4--2--2----2-2--| 

G|-----| 
D|-----| 
A|--7--| 
E|-----| 



************************************ 

| \  Slide down 
| ~  Vibrato 
| /  Slide up 

************************************ 
	  

Search Paypal
auto scroll beats size up size down change color hide chords drawings
tab show chords e-chords YouTube Clip e-chords hide all tabs e-chords go to top tab