Goo Goo Dolls

home > Goo Goo Dolls

Here is Gone Bass Tab

Goo Goo Dolls

Difficulty: nolevelnolevel

tuner correct add songbook print version text version save to e-mail
chordsukulelecavacokeyboardtabbassdrummharmonicsflute Guitar Pro
chords

Here is Gone

Year: 2002 - Album: Live in Buffalo: July 4, 2004

  		

 – 
Tabbed by: sinniecoyote


Verse 1
G|--------------------|
D|--------------------|
A|-1---4--4/6---------| X5
E|------------4--1-2--|

Pre-chorus 1
G|-------------------------------------------------------------------------|
D|--------------------------------------8----------------------------------|
A|-6-66-66-----------4-44-44-4-44-44--6---6-66-----8-------6--------4----4-|
E|---------456-66-66---------------------------456---6-6-4---4-4-22---22---|

Chorus 1
G|-------------------------------------------------------------------|
D|-------------------------------------------5-----------------------|
A|-4-44-44-3-33-33-----------------4-44-44-3---3-33-----------6------|
E|-----------------6-66-66-4-4-2-2------------------6-66-66-4--4-2-2-|

Verse 2
G|--------------------|
D|--------------------|
A|-1---4--4/6---------| X3
E|------------4--1-2--|

Pre-chorus 2
G|------------------------------------------------------------------------|
D|---8-----8---------------6-----6---6-----6------------------------------|
A|-6---6-6-------8-----8-4---4-4---4---4-4---6-66-66----------------------|
E|-----------456---6-6-------------------------------456-6-66-6-4-44-2-22-|

Chorus 2
G|------------------------------------------------------------------|
D|------------------------------------------------------------------|
A|-4-44-44-3-33-33-----------------4-44-44-3-33-33------------------|
E|-----------------6-66-66-4-4-2-2-----------------6-66-66-4-4-2-2--|

Bridge
G|------------------------------------------------------------------------------|
D|------------------------------------------------------------------------------|
A|-------------------4-4-4-4-4-4--------346-----------9-99-99-----11------------|
E|-6-6-6-689-2-22-22-------------4-4-4-4----6-6-6-689---------9-9----9--6-6-4-4-|

G|-----------------------|
D|-----------------------|
A|-----------------------|
E|-222222222222/14141414-|

Last Chorus
G|------------------------------------------------------------------|
D|------------------------------------------------------------------|
A|-4-44-44-3-33-33-----------------4-44-44-3-33-33------------------| X2
E|-----------------6-66-66-4-4-2-2-----------------6-66-66-4-4-2-2--|

G|--------------------------------------------------------------------|
D|--------------------------------------------------------------------|
A|-4-44-44-3-33-33-----------------4-44-44-3-33-33--------------------|
E|-----------------6-66-66-4-4-2-2-----------------6-66-66-4-4-2-2-9--|

	  

Search Paypal
auto scroll beats size up size down change color hide chords drawings
tab show chords e-chords YouTube Clip e-chords hide all tabs e-chords go to top tab