Goo Goo Dolls

home > Goo Goo Dolls

Fallin Down Bass Tab

Goo Goo Dolls

Difficulty: nolevelnolevel

tuner correct add songbook print version text version save to e-mail
chordsukulelecavacokeyboardtabbassdrumsharmonicsflute Guitar Pro
chords

Fallin Down

  		

Fallin' Down
Band:
Album:Superstar Carwash
Tabbed by:[email protected]

Intro/Chorus
G--------------------------------------
D---2------22-------2------------------
A-4--2-2-4---2-0--4--2-4-0-00-022------
E--------------------------------------


G-------------------------------------
D--2-----22-------2-------------------
A-4-2-2-4---2-0-4---2-4---------------
E-----------------------0-------------

Verse
G-------------------------------------
D-------------------------------------
A-22-2244-4------------22-2244-4------
E-----------44444455\-----------------

Pre Chorus
G-------------------------------------
D-22211---------22211-----------------
A------442-----------442--------------
E---------45------------455555555-----

Chorus Play Intro

Verse 
Pre Chorus
Chorus

Bridge/Solo
G------------------
D------------------
A-44-----------78-- x3
E------------------

G-------------------------------------
D-------------------------------------
A--87---10-8788-----------------------
E-------------------------------------

Solo Play Intro

Pre Chorus
Chorus

Outro
G-------------------------------------
D-------------------------------------
A--0-2-4-2--0-2-4-2--0-2-4-2-0~-------
E-------------------------------------

	  

Search Paypal
auto scroll beats size up size down change color hide chords drawings
tab show chords e-chords YouTube Clip e-chords hide all tabs e-chords go to top tab