Goo Goo Dolls

home > Goo Goo Dolls

Domino Bass Tab

Goo Goo Dolls

Difficulty: BeginnerBeginner

tuner correct add songbook print version text version save to e-mail
chordsukulelecavacokeyboardtabbassdrumsharmonicsflute Guitar Pro
chords

Domino

Year: 1993 - Album: Superstar Car Wash

Key:  G#5 More
Domino Key D#5D#5
Domino Key E5E5
Domino Key F5F5
Domino Key F#5F#5(one step down)
Domino Key G5G5(half step down)
Domino Key G#5G#5(original key)
Domino Key A5A5(half step up)
Domino Key A#5A#5(one step up)
Domino Key B5B5
Domino Key C5C5
Domino Key C#5C#5
Domino Key D5D5
  		


Band:
Album:Superstar Carwash
Tabber:[email protected]

The song layout includes the lyrics email me if thats a good way to do it just trying it out.
Intro/Verse Riff
G------------------------------------------
D------------------------------------------
A----------76-2----------2-----------------
E-44444444------44444444--0-2--------------

Chorus Riff
G------------------------------------------
D------------------------------------------
A-2-22-------------------------------------X3
E------4-44-2-22-0-00----------------------

G------------------------------------------
D------------------------------------------X1
A-2-22-----------7776-2--------------------
E------4-44-2-22---------------------------

Intro X2
Verse X4
If you never had it then 
You don't know how bad it is 
Having nothing, liking it well 
Neighbors talked and, I can tell but
Chorus X4
Here comes the day I sit and wait 
Oh it's always something
The bills keep coming the car ain't running 
Now I'm thumbing home again 
Another day, oh, the mailman's on his way 
Just sit and wait 
Always pondering my fate too late 
Another day goes
Intro X2
Verse X4
I borrowed from you yesterday 
Lent a bunch to you last may
No one minds I can tell 
Seems I've picked the wrong seashell but
Chorus X4
Solo (Play Intro/Verse Riff) X4
Bridge (Play Chorus Riff) X4
Dominoes are falling still
As I know they always will
Dominoes a test of will 
Dominoes 
Solo (Play Intro/Verse Riff) X4
End With the end of the Chorus Riff played slowly

	  

Search Paypal
auto scroll beats size up size down change color hide chords drawings
tab show chords e-chords YouTube Clip e-chords hide all tabs e-chords go to top tab