Gondwana

home > Gondwana

Aire de Jah Bass Tab

Gondwana

Difficulty: BeginnerBeginner

by Ratso+Simion

tuner correct add songbook print version text version save to e-mail
chordsukulelecavacokeyboardtabbassdrumsharmonicsflute Guitar Pro
chords

Aire de Jah

  		Chorus: 

D|-0-------| 
A|---3-1-0-| 
E|---------| 

D|------0--0-------------1---1---1---0---0---0-------| 
A|-------------------------1---1-------1---1---3-1-0-| 
E|-3--3------3---3-1--3------------------------------| 

D|-----------------------1---1---1---0---0---0-------| 
A|-------------------------1---1-------1---1---3-1-0-| 
E|-3--3-1--1-3---3-1--3------------------------------| 

D|------0--0-------------1---1---1---0---0---0-------| 
A|-------------------------1---1-------1---1---3-1-0-| 
E|-3--3------3---3-1--3------------------------------| 

D|-----------------------1---1---1---0---0---0---| 
A|-------------------------1---1-------1---1-----| 
E|-3--3-1--1-3---3-1--3--------------------------| 

Verse: 
D|-----0-0---------------1----------0-------| 
A|---------1-1-0----1------1-1--------1-0---| 
E|-3-3-----------3-------------3----------1-| X5 

D|-----0-0---------------1----------0-0-------| 
A|---------1-1-0----1------1-1----------3-1-0-| 
E|-3-3-----------3-------------3--------------| 

Chorus: 

D|------0--0-------------1---1---1---0---0---0-------| 
A|-------------------------1---1-------1---1---3-1-0-| 
E|-3--3------3---3-1--3------------------------------| 

D|-----------------------1---1---1---0---0---0-------| 
A|-------------------------1---1-------1---1---3-1-0-| 
E|-3--3-1--1-3---3-1--3------------------------------| 

D|------0--0-------------1---1---1---0---0---0-------| 
A|-------------------------1---1-------1---1---3-1-0-| 
E|-3--3------3---3-1--3------------------------------| 

D|-----------------------1---1---1---0---0---0-------| 
A|-------------------------1---1-------1---1---3-1-0-| 
E|-3--3-1--1-3---3-1--3------------------------------| 

Trumpet Solo: 

D|------0--0-------------1---1---1---0---0---0-------| 
A|-------------------------1---1-------1---1---3-1-0-| 
E|-3--3------3---3-1--3------------------------------| 

D|-----------------------1---1---1---0---0---0-------| 
A|-------------------------1---1-------1---1---3-1-0-| 
E|-3--3-1--1-3---3-1--3------------------------------| 

Verse 2: 

D|-----0-0---------------1----------0-------| 
A|---------1-1-0----1------1-1--------1-0---| 
E|-3-3-----------3-------------3----------1-| X4 

D|-1--------1------0--------0------| 
A|-------1--------------0----------| 
E|----3--------------2-------------| X3 

D|---------------------------------1-----0-----| 
A|-3-3-0-0-3-3-0-0-3-3-0-0-3-3-0-0-------------| 
E|---------------------------------------------| 

Chorus: 

D|-------------------------------------------0-----| 
A|----------------------------------------------1--| 
E|-------------------------------------------------| 

D|------0--0-------------1---1---1---0---0---0-------| 
A|-------------------------1---1-------1---1---3-1-0-| 
E|-3--3------3---3-1--3------------------------------| 

D|-----------------------1---1---1---0---0---0-------| 
A|-------------------------1---1-------1---1---3-1-0-| 
E|-3--3-1--1-3---3-1--3------------------------------| 

D|------0--0-------------1---1---1---0---0---0-------| 
A|-------------------------1---1-------1---1---3-1-0-| 
E|-3--3------3---3-1--3------------------------------| 

Verse 3: 

D|--------0--0---------0--0--1-1--1--------0-0--0-------| 
A|----------------------------------1-1--1--------1--0--| 
E|-3-3--3-------3-3--3----------------------------------| X4 

Chorus: 

D|------0--0-------------1---1---1---0---0---0-------| 
A|-------------------------1---1-------1---1---3-1-0-| 
E|-3--3------3---3-1--3------------------------------| 

D|-----------------------1---1---1---0---0---0---------| 
A|-------------------------1---1-------1---1---3-1-0---| 
E|-3--3-1--1-3---3-1--3------------------------------3-| 

	  

Search Paypal
auto scroll beats size up size down change color hide chords drawings
tab show chords e-chords YouTube Clip e-chords hide all tabs e-chords go to top tab