Godsmack

home > Godsmack

Sweet Leaf (ver. 2) Bass Tab

Godsmack

Difficulty: nolevelnolevel

tuner correct add songbook print version text version save to e-mail
chordsukulelecavacokeyboardtabbassdrumsharmonicsflute Guitar Pro
chords

Sweet Leaf (ver. 2)

  		




Drop D down 1 step
For more tabs, http://go.to/tab_zone
Tabber: Jason - c0z420
email: [email protected]

Bass (DADG)
This is just played along with the guitar. 
Not guaranteeing that this is how they play it 
at all but its how you could play along with 
the guitar.

Intro                 3x
|---------------------|------------|
|---------------------|------------|
|---------------------|------------|
|-2-2--7-6-5--5--5-7\-|-2-2--7-6-5-|

Verse                 8x
|---------------------|
|---------------------|
|---------------------|
|-2-2--7-6-5--5--5-7\-|

1st Chorus          p.m.......... 2x  (*=omit 2nd time)
|---------------------------------|
|---------------------------------|
|---------------------------------|
|-2---0---5---9\--2---2-2-2-2-2-2-|

Post Chorus          3x
|---------------------|------------|
|---------------------|------------|
|---------------------|------------|
|-2-2--7-6-5--5--5-7\-|-2-2--7-6-5-|

Second Chorus
                   p.m.......... 4x (*=omit 2nd and 4th times)
|---------------------------------|
|---------------------------------|
|---------------------------------|
|-2---0---5---9\--2---2-2-2-2-2-2-|

Breakdown
p.m..............
|--------------------------------|
|--------------------------------|
|--------------------------------|
|-2-2-2-2-2-2-2-2----4------/6-6-|

Breakdown cont'd
(w/lead)
|----------------------------------------------------------------------------|
|----------------------------------------------------------------------------|
|----------------------------------------------------------------------------|
|----4-6-6-----4-6-6-----4-6-6----4-6-6--4-6-6-6-6--4---4-4-4--4-4-4--4-4-4\-|



Post-Breakdown       3x
|---------------------|------------|
|---------------------|------------|
|---------------------|------------|
|-2-2--7-6-5--5--5-7\-|-2-2--7-6-5-|

Outro
                                        repeat till fade out
|-----------------------|-----------------------|
|-----------------------|-----------------------|
|-----------------------|-----------------------|
|-2-2--7-6-5--5--5-7\---|-2-2--7-6-5--5--5-7\---|

	  

Search Paypal
auto scroll beats size up size down change color hide chords drawings
tab show chords e-chords YouTube Clip e-chords hide all tabs e-chords go to top tab