Godsmack

Goin' Down (ver. 2)

Godsmack

bass

save to print version add songbook text version e-mail correct tuner
chordsukulelecavacokeyboardtabbassdrumsharmonicaflute Guitar Pro
close

there isn't a video lesson for this song

chords

Goin' Down (ver. 2)

	  		

          GOINí DOWN       (BASS tab)
Tuning: Drop D

	Intro

 e|-----------------------------------------------------|
G|------------------0----------------------------------|
A|-------0----3---------3---0-------------------------|
E|---0----------------------------3---0----------------|
	
 e|---------------------------------------------------------------------------------------------|
G|---------------------------------------------------------------------------------------------|
A|---5-5-5-5-5-5-5-5-----3-3-3-3-3-3-3-3---2-2-2-2-2-2-2-2----1-1-1-1-1-1-1-1--|         x2
E|----------------------------------------------------------------------------------------------|

Then the Intro again

e|----------------------------------------------------------------------------------------------|
G|---------------------------------------------------------------------------------------------|
A|---------------------------------------------------------------------------------------------|	       x2
E|--0-0-0-0-0-0-0-0----3-3-3-3-3-3-3-3----2-2-2-2-2-2-2-2----1-1-1-1-1-1-1-1----|

Then the Intro again
It plays the intro a lot in the beginning of the song, and in other parts of the song, youíll have to listen to the C.D. and see how many times to play each of the three licks throughout the song.  This is my first tab so there may be a few mistakes (for the most part itís right), You can send corrections to my email:  [email protected] 
                                      Godsmack kick ass!  enjoy!

		  

See also:

bass System Of A Down - Bounce bass Evanescence - My Immortal bass Korn - Alone I Break bass Linkin Park - And One bass System Of A Down - Spiders (ver. 2) bass Godsmack - Bad Religion
e-chords

Other versions:

bass Godsmack - Goin Down bass The Monkees - Goin Down bass Godsmack - Goin' Down bass Godsmack - Goin' Down (ver. 2) bass Godsmack - Goin' Down (ver. 3)
auto scroll beats size up size down change color hide chords drawings
tab show chords e-chords YouTube Clip e-chords hide all tabs e-chords go to top tab

share