Glória

O Fim É Uma Certeza

Glória

bass

by  HEBEALMEIDA

save to print version add songbook text version e-mail correct tuner
chordsukulelecavacokeyboardtabbassdrumsharmonicaflute Guitar Pro
close

there isn't a video lesson for this song

chords

O Fim É Uma Certeza

	  		Intro

G|-------------------------------------------------------------------------------------------|
D|-------------------------------------------------------------------------------------------|
A|-------------------------------------------------------------------------------------------|
D|0-00-0-00-0-00-0-00------------------------------------------------------------------------|

PARTE A(0:28)2x
G|-------------------------------------------------------------------------------------------|
D|-------------------------------------------------------------------------------------------|
A|--------11111111---------------------------------------------------------------------------|
D|00000000--------33333333-05-06-05-03-------------------------------------------------------|

Voz 1(0:44)5x
G|-------------------------------------------------------------------------------------------|
D|-------------------------------------------------------------------------------------------|
A|1111111111-333-55555555555-333-------------------------------------------------------------|
D|-------------------------------------------------------------------------------------------|

Intro(1:11)
G|-------------------------------------------------------------------------------------------|
D|-------------------------------------------------------------------------------------------|
A|-------------------------------------------------------------------------------------------|
D|0-00-0-00-0-00-0-00------------------------------------------------------------------------|

2x
G|------7------7------------------------------------------------------------------------------|
D|-----7----7-7----7--------------------------------------------------------------------------|
A|1-3-5--555-5--555---------------------------------------------------------------------------|
D|--------------------------------------------------------------------------------------------|

Pré-Refrão(1:32)2x
G|-------------------------------------------------------------------------------------------|
D|-------------------------------------------------------------------------------------------|
A|-------------------------------------------------------------------------------------------|
D|00000000000000-3333333-5555-6666-----------------------------------------------------------|

Refrão(1:44)2x
G|-------------------------------------------------------------------------------------------|
D|-------------------------------------------------------------------------------------------|
A|-------------------------------------------------------------------------------------------|
D|000000-000000-3333333-5555-6666------------------------------------------------------------|

Solo(2:00)4x
G|-------------------------------------------------------------------------------------------|
D|-------------------------------------------------------------------------------------------|
A|-------------035-5/17-17-17-17-17----------------------------------------------------------|
D|0/12-12/8-035------------------------------------------------------------------------------|

Intro
Pré-Refrão
Refrão 2x

Fim
G|-------------------------------------------------------------------------------------------|
D|-------------------------------------------------------------------------------------------|
A|-------------------------------------------------------------------------------------------|
D|0000---------------------------------------------------------------------------------------| 
		  

See also:

bass Charlie Brown Jr. - Te Levar bass Charlie Brown Jr. - Sino Dourado bass Charlie Brown Jr. - O Futuro É Um Labirinto Pra Quem Não Sabe O Que Quer bass Charlie Brown Jr. - So Far Away bass Charlie Brown Jr. - Zóio de Lula bass Charlie Brown Jr. - Lugar ao sol
e-chords

Other versions:

bass Glória - O Fim É Uma Certeza
auto scroll beats size up size down change color hide chords drawings
tab show chords e-chords YouTube Clip e-chords hide all tabs e-chords go to top tab

share