Gloria Gaynor

I Will Survive Bass Tab

Gloria Gaynor

Difficulty: ExpertExpert

tuner correct add songbook print version text version save to e-mail
chordsukuleleukulelecavacokeyboardtabbassdrummharmonicsflute Guitar Pro
close

there isn't a video lesson for this song

request
chords

I Will Survive

  		Intro:
G |------------------------------------------------|
D |------------------------------------------------|
A |------------------------------------------------|
E |--5--5/10--10\3--3/8--8\1--1/6--6\0--0/12-------|

Main Riff:
G |--------------------------------------------------------------|
D |--------------------------------------------------------------|
A |--------------4-5--5-5--5-7-9-10--10-10--10-9\3--3-3--3-2-0---|
E |--5--5-5--5-7-----------------------------------------------1-|


G ---------------------------------------------------------------|
D ---------------------------------------------------------------|
A ----------0-1--1-1--1-0-----------2/7--7-----------------------|
E -1-1--1-3---------------0--------------------------------------| 

	  

Search Paypal
auto scroll beats size up size down change color hide chords drawings
tab show chords e-chords YouTube Clip e-chords hide all tabs e-chords go to top tab

share with facebook