Glenn Miller

Moonlight Serenade

Glenn Miller

bass

by  ROBEPOIEL

save to print version add songbook text version e-mail correct tuner
chordsukulelecavacokeyboardtabbassdrumsharmonicaflute Guitar Pro
close

there isn't a video lesson for this song

chords

Moonlight Serenade

Year: 1975 - Album: Escalada - Internacional

	  		Intro 
00                       R   h qb   q   h   R                                                  
G|----------|-8--------|-----5-5--|-(5)-5----|| 
D|-10-------|----------|----------|----------|| 
A|----------|----------|----------|----------|| 
E|----------|----------|----------|----------|| 


Part 1 
05                                                                                      
G|-----2-2--|-1-----1--|-0-7-4-0--|---0-0-1--|-1--------|---0-2-5--|----------|-------4--| 
D|-3-3------|---3-0----|----------|-4--------|-----3-2--|-3--------|-3-3---1--|-0-4-7----| 
A|----------|----------|----------|----------|---3------|----------|-----3----|----------| 
E|----------|----------|----------|----------|----------|----------|----------|----------| 

13                                  q q e q.                                                 
G|-5-3-0----|-------0--|-3-1------|---5------|| 
D|-------4--|-----3----|----------|-3---3-1--|| 
A|----------|-1-4------|-----3-3--|----------|| 
E|----------|----------|----------|----------|| 


Part 2 
17                                                                                      
G|-----2-2--|-1-----1--|-0-0------|-----0----|---0-2-5--|----------|----------|-----2-1--| 
D|-3-3------|---3-0----|-----0-0--|----------|-3--------|-3-3---0--|-3-3---1--|-0-4------| 
A|----------|----------|----------|-3-3---3--|----------|-----3----|-----3----|----------| 
E|----------|----------|----------|----------|----------|----------|----------|----------| 

25                                                                                      
G|-2---0----|-1-0---0--|-----5-1--|-2--------|| 
D|-------3--|-----2----|----------|---3-1-3--|| 
A|---4------|----------|-3-3------|----------|| 
E|----------|----------|----------|----------|| 


Part 3 
29                           triplet                                                           
G|----------|----------|---2------0-|-2-0------|----------|-------1--|-2--------|-0---0----|| 
D|-----3----|-1-1---1--|-2---1--3---|-----4-4--|-0-----2--|-0-3-2----|-----0-4--|-------3--|| 
A|-1-1---1--|-----1----|------------|----------|---0------|----------|----------|----------|| 
E|----------|----------|------------|----------|-----4----|----------|----------|----------|| 


Part 4 
37                                                                                      
G|---5-2----|-------1--|-0-0------|-----0----|----------|-2-----2--|-5-2------|-----2-1--| 
D|-3-----3--|-0-2-3----|-----0-0--|----------|-3-2-0----|-----3----|-----3----|-0-4------| 
A|----------|----------|----------|-3-3---3--|-------3--|---3------|-------3--|----------| 
E|----------|----------|----------|----------|----------|----------|----------|----------| 

45                                                                                      
G|-2-0------|-3-0---0--|-5-0------|---0-2----|| 
D|-----2-3--|-----2----|----------|-3-----2--|| 
A|----------|----------|-----3-3--|----------|| 
E|----------|----------|----------|----------|| 


Part 5 
49                                                                                      
G|----------|-------1--|-0-3-0----|-------1--|-2-5-2----|----------|----------|-------3--| 
D|-3-2-0----|---0-3----|-------0--|---0-2----|----------|-3-3-2-0--|---3-1-1--|-0-0-4----| 
A|-------3--|-2--------|----------|-3--------|-------3--|----------|-3--------|----------| 
E|----------|----------|----------|----------|----------|----------|----------|----------| 

57                                                                                      
G|-2-0------|-3-----0--|-5-0------|----------|| 
D|-----2-3--|-----1----|-----2----|-3---3-3--|| 
A|----------|---4------|-------3--|---3------|| 
E|----------|----------|----------|----------|| 


Part 6 
61                           triplet     half                                                      
G|----------|-----3-2--|---------0-|-2-0------|-------1--|-4--------|-2--------|-3--------|| 
D|-----3----|-1--------|-2---2-3---|-----0----|-0---2----|-----2----|-----0----|-------2--|| 
A|-1--------|----------|-----------|----------|----------|----------|----------|-----3----|| 
E|----------|----------|-----------|----------|----------|----------|----------|----------|| 


Part 7 
69                                                                                      
G|---5-2----|-------1--|-0-0------|-----0----|----------|-2-----2--|-5-2------|-----2-1--| 
D|-3-----3--|-0-2-3----|-----0-0--|----------|-3-2-0----|-----3----|-----3----|-0-4------| 
A|----------|----------|----------|-3-3---3--|-------3--|---3------|-------3--|----------| 
E|----------|----------|----------|----------|----------|----------|----------|----------| 

77                           half   R R R R    R r eb half 
G|-2-0------|-1-0---0--|-5-0------|----------|----------------|| 
D|-----2-3--|-----2----|----------|----------|-----3--(3)-----|| 
A|----------|----------|-----3----|----------|----------------|| 
E|----------|----------|----------|----------|----------------|| 
		  

See also:

bass Michael Jackson - Thriller bass Chaka Khan - Tell Me Somthing Good bass Kelly Clarkson - Because Of You bass Stevie Wonder - Superstition bass Placebo - Every You, Every Me bass Newsboys - Hallelujah
e-chords

Other versions:

bass Glenn Miller - Moonlight Serenade
auto scroll beats size up size down change color hide chords drawings
tab show chords e-chords YouTube Clip e-chords hide all tabs e-chords go to top tab

share