Gin Wigmore

Too Late For Lovers Bass Tab

Gin Wigmore

Difficulty: nolevelnolevel

by ang%2Dletra

tuner correct add songbook print version text version save to e-mail
chordsukulelecavacokeyboardtabbassdrumsharmonicsflute Guitar Pro
close

there isn't a video lesson for this song

chords

Too Late For Lovers

  		
Intro (0:00) 
G|----------------|----------------|----------------|----------------|| 
D|----------------|----------------|----------------|----------------|| 
A|----------------|----------------|----------------|----------------|| 
E|----------------|----------------|----------------|----------------|| 

verse 1 (0:13) 
G|----------------|----------------|----------------|----------------| 
D|----------------|----------------|----------------|----------------| 
A|--------4-4-----|--------5-5-----|--------4-4-----|--------5-5-----| 
E|5---------------|3---------------|5---------------|3---------------| 

G|----------------|----------------|----------------|| 
D|----------------|----------------|----------------|| 
A|--------4-4-----|--------5-5-----|7---7-----------|| 
E|5-----5---------|3---------------|--------0-----0-|| 

Chorus 1 (0:36) 
G|----------------|----------------|----------------|----------------| 
D|------7-6-------|----------------|------7-6---76--|----------------| 
A|---h7---------7-|5---5---5-5---5-|---h7---------7-|5---5---5-5---5-| 
E|5---------------|-------5--------|5---------------|-------5--------| 

G|----------------|----------------|----------------|----------------|| 
D|------7-6---76--|----------------|----------------|----------------|| 
A|---h7---------7-|5---5---5-5---4-|2---2---2-2---4-|5---------------|| 
E|5---------------|-------5--------|-------2--------|----------------|| 

Interlude 1 (1:03) 
G|----------------|----------------|----------------|----------------|| 
D|----------------|----------------|----------------|----------------|| 
A|--------4-4---4-|--------5-5---7-|--------4-4---4-|--------5-------|| 
E|5-----5---------|3-----3---------|5-----5---------|3-----3---------|| 

verse 2 (1:16) 
G|----------------|----------------|----------------|----------------| 
D|----------------|----------------|----------------|----------------| 
A|--------4-4-----|--------5-5-----|--------4-4-----|--------5-5---5-| 
E|5-----5---------|3---------------|5---------------|3---------------| 

G|----------------|----------------|----------------|| 
D|----------------|----------------|----------------|| 
A|--------4-4-----|--------5-5---5-|7---7-----------|| 
E|5-----5---------|3---------------|--------0-----0-|| 

Chorus 2 (1:40) 
G|----------------|----------------|----------------|----------------| 
D|------7-6-------|----------------|------7-6---76--|----------------| 
A|---h7---------7-|5---5---5-5---5-|---h7---------7-|5---5---5-5---5-| 
E|5---------------|-------5--------|5---------------|-------5--------| 

G|----------------|----------------|----------------|----------------|| 
D|------7-6---76--|----------------|----------------|----------------|| 
A|---h7---------7-|5---5---5-5---4-|2---2---2-2---4-|5---5---5-5---5-|| 
E|5---------------|-------5--------|-------2--------|----------------|| 

Interlude 2 (2:06) 
G|----------------|----------------|----------------|----------------| 
D|----------------|----------------|----------------|----------------| 
A|8-8-8-8-9-9-9-9-|6-6-6-6-5-5-5-5-|8-8-8-8-9-9-9-9-|6-6-6-6-5-5-5-5-| 
E|----------------|----------------|----------------|----------------| 

G|----------------|--------|----------------|----------------|| 
D|----------------|--------|----------------|----------------|| 
A|8-8-8-8-9-9-9-9-|6-6-6-6-|5-5-5-5-5-5-5-5-|7-7-7-7---------|| 
E|----------------|--------|----------------|--------0-0-0-0-|| 

Chorus 3 (2:31) 
G|----------------|----------------|----------------|----------------| 
D|------7-6-------|----------------|------7-6---76--|--------------7-| 
A|---h7---------7-|5---5---5-5---5-|---h7---------7-|5---5---5-5-79--| 
E|5---------------|-------5--------|5---------------|-------5--------| 

G|----------------|----------------|----------------|----------------|| 
D|------7-6---76--|----------------|----------------|----------------|| 
A|---h7---------7-|5---5---5-5---4-|2---2---2-2---4-|5---5---5-5-----|| 
E|5---------------|-------5--------|-------2--------|----------------|| 

Chorus 4 (2:58) 
G|----------------|----------------|----------------|----------------| 
D|------7-6---76--|--------------7-|------7-6---76--|----------------| 
A|---h7---------7-|5---5---5-5-79--|---h7---------7-|5---5---5-5---7-| 
E|5---------------|-------5--------|5---------------|-------5--------| 

G|----------------|----------------|----------------|----------------|| 
D|------7-6---76--|----------------|----------------|----------------|| 
A|---h7---------7-|5---5---5-5---4-|2---2---2-2---4-|5---------------|| 
E|5---------------|-------5--------|-------2--------|----------------|| 

Outro (3:24) 
G|----------------|----------------|----------------|----------------| 
D|----------------|----------------|----------------|----------------| 
A|--------4-4---4-|--------5-5---7-|--------4-4---4-|--------5-5---7-| 
E|5-----5---------|3-----3---------|5-----5---------|3-----3---------| 

G|----------------|----------------|| 
D|----------------|----------------|| 
A|----------------|----------------|| 
E|5---------------|----------------|| 

************************************ 

| h  Hammer-on 

************************************ 
	  

auto scroll beats size up size down change color hide chords drawings
tab show chords e-chords YouTube Clip e-chords hide all tabs e-chords go to top tab

share with facebook

Search Paypal