George Harrison

home > George Harrison

My Sweet Lord Bass Tab

George Harrison

Difficulty: BeginnerBeginner

by mufy09

tuner correct add songbook print version text version save to e-mail
chordsukulelecavacokeyboardtabbassdrumsharmonicsflute Guitar Pro
chords

My Sweet Lord

	  MY SWEET LORD 


George Harrison 


VERSE 



  01:44 

G|---------------------------------|---------------------------------| 
D|---------------------------------|---------------------------------| 
A|-7---------------7---------------|-7---------------7---------------| 
E|---------------------------------|---------------------------------| 



G|---------------------------------|---------------------------------| 
D|-----------------3---------------|-3-------------------------------| 
A|-4-------------------------------|-----------------4---------------| 
E|---------------------------------|---------------------------------| 



G|---------------------------------|---------------------------------| 
D|-4---------------4---------------|---------------------------------| 
A|-----------------------------4---|---------------------------------| 
E|---------------------------------|-4---------------5-----------6---| 



Chorus 

  01:55 

G|---------------------------------|---------------------------------| 
D|---------------------------------|---------------------------------| 
A|-----------------------------3---|-4---------------4-------6-------| 
E|-4---------------4---------------|---------------------------------| 



G|---------------------------------|---------------------------------| 
D|---------------------------------|---------------------------------| 
A|-----------------------------3---|-4---------------4-------4----6--| 
E|-4---------------4---4-----------|---------------------------------| 



G|---------------------------------|---------------------------------| 
D|---------------------------------|---------------------------------| 
A|---------------------------------|-4---------------4---------------| 
E|-4---------------4---------------|-------------4-------------------| 



G|---------------------------------|---------------------------------| 
D|---------------------------------|---------------------------------| 
A|---------------------------------|-4---------------4---------------| 
E|-4---------------4---------------|---------------------------------| 



VERSE 

  02:12 

G|---------------------------------|---------------------------------| 
D|-4---------------4---------------|---------------------------------| 
A|-----------------------------4---|-6---------------4-------6-------| 
E|---------------------------------|---------------------------------| 



G|---------------------------------|---------------------------------| 
D|-4---------------4---------------|---------------------------------| 
A|-----------------------------4---|-6---------------4-------6-------| 
E|---------------------------------|---------------------------------| 



G|---------------------------------|---------------------------------| 
D|---------------------------------|---------------------------------| 
A|---------------------------------|-4-------------------------------| 
E|-4---------------5-------6-------|-----------------4---------------| 



Chorus 

  02:23 

G|---------------------------------|---------------------------------| 
D|---------------------------------|---------------------------------| 
A|-----------------------------3---|-4-----------3---4-----------6---| 
E|-4---------------4---------------|---------------------------------| 



G|---------------------------------|---------------------------------| 
D|---------------------------------|---------------------------------| 
A|-----------------------------3---|-4---------------4-----------6---| 
E|-4---------------4---------------|---------------------------------| 



G|---------------------------------|---------------------------------| 
D|---------------------------------|---------------------------------| 
A|---------------------------------|-4-----------3---4-----------6---| 
E|-4---------------4---------------|---------------------------------| 



G|---------------------------------|---------------------------------| 
D|---------------------------------|-----------------------------3---| 
A|-----------------------------3---|-4---------------4---------------| 
E|-4---------------4---------------|---------------------------------| 



GUITAR SOLO 

  02:39 

G|---------------------------------|---------------------------------| 
D|---------4-----------------------|-------------------------3-------| 
A|-------------------------4-------|-6-----------4---6---------------| 
E|-2-------------------------------|---------------------------------| 



G|---------------------------------|---------------------------------| 
D|-4---------------4---------------|-----------------------------3---| 
A|-----------------------------4---|-6-----------4---6---------------| 
E|---------------------------------|---------------------------------| 



G|---------------------------------|---------------------------------| 
D|-4---------------4---------------|-5-------------------------------| 
A|-----------------------------4---|-----------------6---------------| 
E|---------------------------------|---------------------------------| 



G|---------------------------------|---------------------------------| 
D|---------------------------------|---------------------------------| 
A|---------------------------------|-4-----------3---4-------6-------| 
E|-4-------5-------6---7-----------|---------------------------------| 



Chorus 

  02:55 

G|---------------------------------|---------------------------------| 
D|---------------------------------|---------------------------------| 
A|-----------------------------3---|-4---------------4-----------6---| 
E|-4---------------4---------------|---------------------------------| 



G|---------------------------------|---------------------------------| 
D|---------------------------------|---------------------------------| 
A|-----------------------------3---|-4---------------4---------------| 
E|-4---------------4---------------|---------------------------------| 



G|---------------------------------|---------------------------------| 
D|---------------------------------|---------------------------------| 
A|-----------------------------3---|-4---------------4-----------6---| 
E|-4---------------4---------------|---------------------------------| 



G|---------------------------------|---------------------------------| 
D|---------------------------------|---------------------------------| 
A|-----------------------------3---|-4---------------4---------------| 
E|-4---------------4---------------|---------------------------------| 



VERSE 

  03:11 

G|---------------------------------|---------------------------------| 
D|-4---------------4---------------|---------------------------------| 
A|---------------------------------|-6---------------4---------------| 
E|---------------------------------|---------------------6---4---3---| 



G|---------------------------------|---------------------------------| 
D|---------------------------------|---------------------------------| 
A|---------------------------------|-6-----------4---6-----------4---| 
E|-2---------------2---2-----------|---------------------------------| 



G|---------------------------------|---------------------------------| 
D|-------------------------4---5---|-------------5-------------------| 
A|-----------------4---6-----------|-----------------6-----------4---| 
E|-4-------------------------------|---------------------------------| 



G|---------------------------------|---------------------------------| 
D|---------------------------------|---------------------------------| 
A|---------------------------------|-4-----------3---4-----------6---| 
E|-4-------5-------6---7-----------|---------------------------------| 



Chorus 

  03:27 

G|---------------------------------|---------------------------------| 
D|---------------------------------|---------------------------------| 
A|-----------------------------3---|-4---------------4-----------6---| 
E|-4---------------4---------------|---------------------------------| 



G|---------------------------------|---------------------------------| 
D|---------------------------------|---------------------------------| 
A|---------------------------------|-4---------------4---------------| 
E|-4---------------4---------------|---------------------------------| 



G|---------------------------------|---------------------------------| 
D|---------------------------------|---------------------------------| 
A|-----------------------------3---|-4---------------4---------------| 
E|-4---------------4---------------|---------------------------------| 



G|---------------------------------|---------------------------------| 
D|---------------------------------|---------------------------------| 
A|-----------------------------3---|-4---------------4---------------| 
E|-4---------------4---------------|---------------------------------| 



G|---------------------------------|---------------------------------| 
D|---------------------------------|---------------------------------| 
A|-----------------------------3---|-4---------------4---------------| 
E|-4---------------4---------------|---------------------------------| 


  03:46 

G|---------------------------------|---------------------------------| 
D|-6-------------------------------|---------------------------------| 
A|-----------------4-----------3---|-4-----------3---4-------6-------| 
E|---------------------------------|---------------------------------| 



G|---------------------------------|---------------------------------| 
D|---------------------------------|---------------------------------| 
A|-----------------------------3---|-4---------------4-------6-------| 
E|-4---------------4---------------|---------------------------------| 



G|---------------------------------|---------------------------------| 
D|---------------------------------|---------------------------------| 
A|-----------------------------3---|-4---------------4-------6-------| 
E|-4---------------4---------------|---------------------------------| 



G|---------------------------------|---------------------------------| 
D|-6-------------------------------|---------------------------------| 
A|-----------------------------3---|-4---------------4-------6-------| 
E|-----------------4---------------|---------------------------------| 



G|---------------------------------|---------------------------------| 
D|---------------------------------|---------------------------------| 
A|-----------------------------3---|-4-----------3---4-------6-------| 
E|-4---------------4---------------|---------------------------------| 



G|---------------------------------|---------------------------------| 
D|---------------------------------|---------------------------------| 
A|-------------------------3-------|-4---------------4-------6-------| 
E|-4---------------4---------------|---------------------------------| 



G|---------------------------------|---------------------------------| 
D|---------------------------------|---------------------------------| 
A|---------------------------------|-4---------------4-------6-------| 
E|-4---------------4---------------|---------------------------------| 



G|---------------------------------|---------------------------------| 
D|---------------------------------|---------------------------------| 
A|-----------------------------3---|-4---------------4-------6-------| 
E|-4---------------4---------------|---------------------------------| 



G|---------------------------------|---------------------------------| 
D|---------------------------------|---------------------------------| 
A|-------------------------3-------|-4-----------3---4-------6-------| 
E|-4---------------4---------------|---------------------------------| 


  04:22 

G|---------------------------------|---------------------------------| 
D|---------------------------------|---------------------------------| 
A|---------------------------------|-4---------------4-------6-------| 
E|-4---------------4---------------|---------------------------------| 



G|---------------------------------|---------------------------------| 
D|---------------------------------|---------------------------------| 
A|-----------------------------3---|-4-----------3---4-----------6---| 
E|-4---------------4---------------|---------------------------------| 



G|---------------------------------|---------------------------------| 
D|---------------------------------|---------------------------------| 
A|-----------------------------3---|-4-----------3---4-------6-------| 
E|-4---------------4---------------|---------------------------------| 



G|---------------------------------|---------------------------------| 
D|---------------------------------|---------------------------------| 
A|---------------------------------|---------------------------------| 
E|-4---------------4---------------|---------------------------------| 
	  

there isn't a video lesson for this song

request
Search
auto scroll beats size up size down change color hide chords drawings
tab show chords e-chords YouTube Clip e-chords hide all tabs e-chords go to top tab