George Gershwin

home > George Gershwin

Rhapsody In Blue Bass Tab

George Gershwin

Difficulty: nolevelnolevel

by edsooliveira

tuner correct add songbook print version text version save to e-mail
chordsukulelecavacokeyboardtabbassdrumsharmonicsflute Guitar Pro
chords

Rhapsody In Blue

	  G|------------------|------------------|------------------|------------------|-------------------|-----------| 
D|------------------|------------------|------------------|------------------|---------1---------|--1--------| 
A|-1----------------|-1----------------|-1----------------|-1----------------|-3----4-----3----4-|-----------| 
E|------------------|------------------|------------------|------------------|-------------------|-----------| 

G|------------------|------------------|------------------|------------------| 
D|-1----------------|------------------|------------------|------------------| 
A|------------------|------------------|------------------|------------------| 
E|------------------|------------------|------------------|------------------| 

G|-----------------------|------------------|-------------------|-----------------| 
D|-1---------------------|------------------|----------1--------|-----------------| 
A|-----------------------|------------------|-------------------|-----------------| 
E|------4----------------|-4----------------|-4-----------------|-4---------------| 

G|---------|----------------------------|-6--------------------------|--------------------|------------------| 
D|-------3-|-4--------------------------|----9--8--7----9--10--11----|-8------------------|-4----------------| 
A|-4--6----|----------7--5--7--5--7--5--|----------------------------|----9--7----5--4----|------------------| 
E|---------|----------------------------|----------------------------|--------------------|------------------| 


(2:57) 
G|-------------------|--------------------|--------------------|-------------------|-----------------| 
D|-------------------|--------------------|--------------------|-------------------|-----------------| 
A|------7---------7--|-------7---------7--|-------7---------7--|-------------------|-----------------| 
E|-5---------5-------|--5---------5-------|--5---------5-------|--5----------------|-5---------------| 

G|-------------------|--------------------|--------------------|-------------------| 
D|-------------------|--------------------|--------------------|-------------------| 
A|------7---------7--|-------7---------7--|-------7---------7--|-------------------| 
E|-5---------5-------|--5---------5-------|--5---------5-------|--5--------5-------| 

G|-------------------|--------------------|--------------------|----------------------| 
D|-------------------|--------------------|--------------------|----------------------| 
A|-------------------|--------------------|--------------------|----------------------| 
E|-5----5----5----5--|--5----5----5----5--|--5----5----5----5--|--4----4----4----4----| 

G|-------------------|-------------------|-------------------|---------------|------------------|------------| 
D|-------------------|-------------------|-------------------|---------------|------------------|------------| 
A|-------------------|-------------------|-3-----------------|---------------|------------------|------------| 
E|-3--------3--------|-3--------1--------|----------6--------|-5--------4----|-3----------------|-3----------| 

G|-------------------|--------------------|--------------------|--------------------|----------------------| 
D|-------------------|--5----5----5----5--|--------------------|--------------------|----------------------| 
A|-3----3----3----3--|--------------------|--3----3----3----3--|--------------------|--3----3----3----3----| 
E|-------------------|--------------------|--------------------|--4----4----4----4--|----------------------| 

G|-------------------|--------------------|--------------------|--------------------|----------------------| 
D|-5----5----5----5--|--------------------|--------------------|--------------------|----------------------| 
A|-------------------|--3----3----3----3--|--3----3----3----3--|--------------------|----------------------| 
E|-------------------|--------------------|--------------------|--1----1----1----1--|--1----1----1----1----| 

G|-------------------|--------------------|--------------------|-------------------| 
D|-------------------|--------------------|--------------------|--5----5----5----5-| 
A|-------------------|--------------------|--3----3----3----3--|-------------------| 
E|-1----1----1----1--|--1----1----1----1--|--------------------|-------------------| 

G|------------------|------------------|------------------|------------------|------------------|------------| 
D|------------------|------------------|------------------|------------------|------------------|------------| 
A|-3----------------|---------2--------|-1----------------|------------------|------------------|------------| 
E|------------------|------------------|------------------|-5----------------|-3----------------|-3----------| 

G|----------------------|-5-----------------|-5-----------------|----------------------------|----------| 
D|-------------5--------|----------5--------|----------5--------|----------------------------|----------| 
A|-10\3-----------------|-------------------|-------------------|-3--------------------------|-3--------| 
E|----------------------|-------------------|-------------------|----------6--4--6--4--6--4--|----------| 

G|----------|-5-----------------|-5-----------------|----------------------|------------------| 
D|-5--------|----------5--------|----------5--------|----------------------|------------------| 
A|----------|-------------------|-------------------|-3------3--3--1--0----|------------------| 
E|----------|-------------------|-------------------|--------------------3-|-1----------------| 

G|----------|----------|----------|-------------------|--2----4----6-------|-------2----3-------|------------| 
D|-3--------|----------|-3--------|-----------2----5--|-----------------4--|--5--------------1--|------------| 
A|----------|----------|----------|-3----5------------|--------------------|--------------------|--5---------| 
E|----------|-1--------|----------|-------------------|--------------------|--------------------|------------| 

G|------------------|-----------------|-------------------------| 
D|------------------|-----------------|-------------------------| 
A|------------------|-----------------|-5------5----5--5--------| 
E|-3----------------|-----------------|-------------------------| 

G|-----------------------|----------------------|-----------------------| 
D|-------5--5------------|----------------------|-----------------------| 
A|-5--7----------5--7--5-|-7/8--------7--5------|-0----2----0----3------| 
E|-----------------------|----------------------|-----------------------| 

G|-----------------------|----------------------|-----------------------| 
D|-------5--5------------|----------------------|-----------------------| 
A|-5--7----------5--7--5-|-7/8--------7--5------|-3----2----3----0------| 
E|-----------------------|----------------------|-----------------------| 



(5:34) 
G|-------------------|--------------------|--------------------|----------------------| 
D|-------------------|--------------------|-------1------------|--1--------------1----| 
A|-4----2---------4--|--2---------4----2--|------------3-------|-------4--------------| 
E|-----------4-------|-------4------------|--4--------------4--|------------4---------| 

G|-------------------|--------------------|--------------------|------------------------------| 
D|-------------------|--------------------|-------1------------|--1--------------1------------| 
A|-4----2---------4--|--2---------4----2--|------------3-------|-------4----------------------| 
E|-----------4-------|-------4------------|--4--------------4--|------------4-----------------| 

G|--------|--------------------|----------------|--------------------|----------------|---------------------| 
D|-6------|-------6------------|---------9------|-------9------------|---------5------|-------5-------------| 
A|-4------|-------4------------|---------7------|-------7------------|---------3------|-------3-------------| 
E|--------|--------------------|----------------|--------------------|----------------|---------------------| 



(10:37) 
G|----------1--------|------------------|------------------|------------------|------------------|-1---------| 
D|-2-----------------|-4----------------|------------------|-2----------------|-2----------------|-----------| 
A|-------------------|------------------|-2----------------|------------------|------------------|-----------| 
E|-------------------|------------------|------------------|------------------|------------------|-----------| 

G|------| 
D|------| 
A|-5----| 
E|------|  

G|------------------|-1----------------|------------------|-2----------------|-1----------------|------------| 
D|------------------|------------------|-4----------------|------------------|------------------|------------| 
A|-4----------------|------------------|------------------|------------------|------------------|-4----------| 
E|------------------|------------------|------------------|------------------|------------------|------------| 

G|------------------|----------------|-------------------|------------------|------------------|-------------| 
D|-4----------------|-------------4--|--3----------------|---------3--------|-2----------------|-2-----------| 
A|------------------|----------------|-------------------|------------------|------------------|-------------| 
E|------------------|----------------|-------------------|------------------|------------------|-------------| 

G|-1----------------|------------------|-4----------------|-----------------|-------------------|-1----------| 
D|------------------|-4----------------|------------------|-2---------------|-2-----------------|------------| 
A|------------------|------------------|------------------|-----------------|-------------------|------------| 
E|------------------|------------------|------------------|-----------------|-------------------|------------| 

G|-----------------------|-1----------------|------------------|-2----------------|-1----------------|-------| 
D|-----------------------|------------------|-4----------------|------------------|------------------|-------| 
A|-5----4----------------|------------------|------------------|------------------|------------------|-4-----| 
E|-----------------------|------------------|------------------|------------------|------------------|-------| 


(14:34) 
G|----4--6-----|----------|---------|---------|----4--6-----|----------|---------|---------|----------|-3----| 
D|-7-----------|-----3--4-|-6-------|---------|-7-----------|-----3--4-|-6-------|---------|-4--------|------| 
A|----------4--|--6-------|---------|---------|----------4--|--6-------|---------|---------|----------|------| 
E|-------------|----------|---------|---------|-------------|----------|---------|---------|----------|------| 

G|-1----------------|------------------|----------------------|-------------|----------6--------|-4----------| 
D|------------------|------------------|-4--------------------|-----4--5--6-|-7-----------------|------------| 
A|------------------|-4----------------|----------------------|-------------|-------------------|------------| 
E|------------------|------------------|----------------------|-------------|-------------------|------------| 

G|------------------|-2--------|-----2--3--4-|----------|----------------|----------|----------------|----| 
D|-2----------------|----------|-------------|----------|----------------|----------|----------------|----| 
A|------------------|----------|-------------|-3--------|-10----8--7-----|----------|-10----8--7-----|----| 
E|------------------|----------|-------------|----------|-------------10-|-8--------|-------------10-|-8--| 

G|-------|-------------|----7-9--------|--------7-9---|-------------7-|-9-------------|--------------| 
D|-------|--------7--9-|-10------------|-7-9-10-------|------7-9-10---|----------7-9--|----1---------| 
A|-----7-|-8--10-------|--------7-8-10-|------------7-|-8-10----------|---7-8-10------|--------------| 
E|-10----|-------------|---------------|--------------|---------------|---------------|--------------| 

G|----------|-4------4-|----------|-----------|-------|------|----------|----------|-2------2-|-1------1-----| 
D|----------|----------|-1------1-|-0-------0-|-------|------|-4------4-|-3------3-|----------|--------------| 
A|-3------3-|----------|----------|-----------|-4-----|------|----------|----------|----------|--------------| 
E|----------|----------|----------|-----------|-------|------|----------|----------|----------|--------------| 

G|--------|-----------|----------|----------|-------|---------|---------|---------|---------|-------------| 
D|--------|-----------|--2----1--|--4----3--|-------|---------|---------|---------|---------|-------------| 
A|-3----2-|---5----4--|----------|----------|--5----|----5----|----3----|----3----|----1----|----1--------| 
E|--------|-----------|----------|----------|-------|---------|---------|---------|---------|-------------| 

G|------------|------------|-5--4--3--2-|------------|-------7--6-|-5--4--3---------| 
D|------------|-6--5--4--3-|------------|-6--5--4--3-|------------|----------8\1----| 
A|-7--6--5--4-|------------|------------|------------|-7--6-------|-----------------| 
E|------------|------------|------------|------------|------------|-----------------| 

G|-3--|-------3--|-------3--|-------3--|-------3--|-------3--|-------3--|-------3--|-------3--|-------| 
D|----|--1-------|--1-------|--1-------|--1-------|--1-------|--1-------|--1-------|--1-------|--1----| 
A|----|----------|----------|----------|----------|----------|----------|----------|----------|-------| 
E|----|----------|----------|----------|----------|----------|----------|----------|----------|-------| 

G|-------0-|-1----1--|--1----1--|--1----1--|--1----1--|-------3--|-------3--|----------|----------|--------| 
D|-1-1-3---|---------|----------|----------|----------|--1-------|--1-------|----------|----------|--------| 
A|---------|---------|----------|----------|----------|----------|----------|----------|----------|--------| 
E|---------|---------|----------|----------|----------|----------|----------|----------|----------|--------| 

G|---------|-3-------------------------|-3----------------------|--3------------------| 
D|-1--0----|----------3--3--3--3--3--3-|-------0--1----1--------|-----3--3----3--3----| 
A|-------3-|---------------------------|----3-------------4--5--|---------------------| 
E|---------|---------------------------|------------------------|---------------------| 

G|-3----------------|-----------------|-3---------------------------------| 
D|------------------|-----------------|-----------------------------------| 
A|------------------|-----------------|-----------------------------------| 
E|------------------|-----------------|-----------------------------------| 


*********************************** 

| /   Slide-up 
| \   Slide-down 

*********************************** 
	  

there isn't a video lesson for this song

request
Search Paypal
auto scroll beats size up size down change color hide chords drawings
tab show chords e-chords YouTube Clip e-chords hide all tabs e-chords go to top tab