Gazette

Reila

Gazette

bass Beginner beginner

by  SHUDII

save to print version add songbook text version e-mail correct tuner
chordsukulelecavacokeyboardtabbassdrumsharmonicaflute Guitar Pro
close

there isn't a video lesson for this song

chords

Reila

	  		Gazette - Reila 
reita baixo 



                                                                          
E||------|------|---------------------------|---------------------------| 
B||------|------|---------------------------|---------------------------| 
G||------|------|---------------------------|---------------------------| 
D||------|------|---------------------------|---------------------------| 
A||------|------|--3--3--3--3-3--3-2--3--5--|--2--2--2--2-3--3-2--------| 
E||------|------|---------------------------|---------------------3--2--| 


                                                         
---------------------------|---------------------------| 
---------------------------|---------------------------| 
---------------------------|---------------------------| 
---------------------------|---------------------------| 
---------------------------|--2------------------------| 
--0--0--0--0-3--3-0--3--5--|-----3--3--3-5--5-3--2--3--| 


                                                         
---------------------------|---------------------------| 
---------------------------|---------------------------| 
---------------------------|---------------------------| 
---------------------------|---------------------------| 
--3--3--3--3-3--3-2--3--5--|--2--2--2--2-3--3-2--------| 
---------------------------|---------------------3--2--| 


                                                        
---------------------------|--------------------------| 
---------------------------|--------------------------| 
---------------------------|--------------------------| 
---------------------------|--------------------------| 
---------------------------|--------------------------| 
--0--0--0--0-3--3-0--3--5--|--3--3--3--3-5--5-3--2/---| 


                                                         
---------------------------|---------------------------| 
---------------------------|---------------------------| 
---------------------------|---------------------------| 
---------------------------|---------------------------| 
--3--3--3--3-3--3-2--3--5--|--2--2--2--2-3--3-2--------| 
---------------------------|---------------------3--2--| 


                                                         
---------------------------|---------------------------| 
---------------------------|---------------------------| 
---------------------------|---------------------------| 
---------------------------|---------------------------| 
---------------------------|--2------------------------| 
--0--0--0--0-3--3-0--3--5--|-----3--3--3-5--5-3--2--3--| 


                                                         
---------------------------|---------------------------| 
---------------------------|---------------------------| 
---------------------------|---------------------------| 
---------------------------|---------------------------| 
--3--3--3--3-3--3-2--3--5--|--2--2--2--2-3--3-2--------| 
---------------------------|---------------------3--2--| 


                                                         
---------------------------|---------------------------| 
---------------------------|---------------------------| 
---------------------------|---------------------------| 
---------------------------|---------------------------| 
---------------------------|---------------------0--2--| 
--0--0--0--0-0--0-0--0--0--|--0------------------------| 


                                                       
--------------------------|--------------------------| 
--------------------------|--------------------------| 
--------------------------|--------------------------| 
--------------------------|--------------------------| 
--3--3--3--3--3--3--3--3--|--3--3--3--3--3--3--3--3--| 
--------------------------|--------------------------| 


                                                       
--------------------------|--------------------------| 
--------------------------|--------------------------| 
--------------------------|--------------------------| 
--------------------------|--------------------------| 
--------------------------|--------2-----2-----------| 
--0--0--0--0--0--0--0--0--|--0--0-----0-----0--3--5--| 


                                                       
--------------------------|--------------------------| 
--------------------------|--------------------------| 
--------------------------|--------------------------| 
--------------------------|--------------------------| 
--3--3--3--3--3--3--3--3--|--2--2--2--2--2--2--2--2--| 
--------------------------|--------------------------| 


                                                                                
--------------------------|------------------------|--------------------------| 
--------------------------|------------------------|--------------------------| 
--------------------------|------------------------|--------------------------| 
--------------------------|------------------------|--------------------------| 
--------------------------|-------------------2----|--3--3--3--3--3--3--3--3--| 
--0--0--0--0--0--0--0--0--|----0--2--3--5--3-------|--------------------------| 


                                                       
--------------------------|--------------------------| 
--------------------------|--------------------------| 
--------------------------|--------------------------| 
--------------------------|--------------------------| 
--3--3--3--3--3--3--3--3--|--------------------------| 
--------------------------|--0--0--0--0--0--0--0--0--| 


                                                       
--------------------------|--------------------------| 
--------------------------|--------------------------| 
--------------------------|--------------------------| 
--------------------------|--------------------------| 
--------2-----2-----------|--3--3--3--3--3--3--3--3--| 
--0--0-----0-----0--3--5--|--------------------------| 


                                                                                 
--------------------------|--------------------------|-------------------------| 
--------------------------|--------------------------|-------------------------| 
--------------------------|--------------------------|-------------------------| 
--------------------------|--------------------------|-------------------------| 
--2--2--2--2--2--2--2--2--|--------------------------|----7--7--7--7--7--7--5--| 
--------------------------|--0--0--0--0--0--0--0--0--|-------------------------| 


                                                       
--------------------------|--------------------------| 
--------------------------|--------------------------| 
--------------------------|--------------------------| 
--------------------------|--------------------------| 
--3--3--3--3--3--3--3--3--|--3--3--3--3--3--3--3--3--| 
--------------------------|--------------------------| 


                                                       
--------------------------|--------------------------| 
--------------------------|--------------------------| 
--------------------------|--------------------------| 
--------------------------|--------------------------| 
--------------------------|--------2-----2-----------| 
--0--0--0--0--0--0--0--0--|--0--0-----0-----0--3--5--| 


                                                       
--------------------------|--------------------------| 
--------------------------|--------------------------| 
--------------------------|--------------------------| 
--------------------------|--------------------------| 
--3--3--3--3--3--3--3--3--|--2--2--2--2--2--2--2--2--| 
--------------------------|--------------------------| 


                                                                                 
--------------------------|-------------------------|--------------------------| 
--------------------------|-------------------------|--------------------------| 
--------------------------|-------------------------|--------------------------| 
--------------------------|-------------------------|--------------------------| 
--------------------------|-------------0-----2-----|--3--3--3--3--3--3--3--3--| 
--0--0--0--0--0--0--0--0--|----0--2--3-----3-----3--|--------------------------| 


                                                       
--------------------------|--------------------------| 
--------------------------|--------------------------| 
--------------------------|--------------------------| 
--------------------------|--------------------------| 
--3--3--3--3--3--3--3--3--|--------------------------| 
--------------------------|--0--0--0--0--0--0--0--0--| 


                                                       
--------------------------|--------------------------| 
--------------------------|--------------------------| 
--------------------------|--------------------------| 
--------------------------|--------------------------| 
--------2-----2-----------|--3--3--3--3--3--3--3--3--| 
--0--0-----0-----0--3--5--|--------------------------| 


                                                                                 
--------------------------|--------------------------|-------------------------| 
--------------------------|--------------------------|-------------------------| 
--------------------------|--------------------------|-------------------------| 
--------------------------|--------------------------|-------------------------| 
--2--2--2--2--2--2--2--2--|--------------------------|-------------0--0--------| 
--------------------------|--0--0--0--0--0--0--0--0--|----3--3--3--------0--2--| 


                                                       
----------------------------|------------------------| 
----------------------------|------------------------| 
----------------------------|------------------------| 
----------------------------|------------------------| 
----------------------------|--------2--9/---2--9/---| 
--3--3--3--x-3--x-3--3--3-x-|--2--2------------------| 


                                                    
---------------------------|----------------------| 
---------------------------|----------------------| 
---------------------------|----------------------| 
---------------------------|----------------------| 
------------------------9--|----7----5------------| 
--7--7--7--x-7--x-5--7-----|--------------5--2----| 


                                                          
-----------------------------|--------------------------| 
-----------------------------|--------------------------| 
-----------------------------|--------------------------| 
-----------------------------|--------------------------| 
-----------------------------|--------------------------| 
--3--3--3--x-3--x-3/-7-7-x-x-|--2--2--2--x-2--x-2--2/---| 


                                                       
--------------------------|--------------------------| 
--------------------------|--------------------------| 
--------------------------|--------------------------| 
--------------------------|--------------------------| 
--2--2--2----9--9-9--9/---|--2--2--2----9--9-9--9/---| 
-----------x--------------|-----------x--------------| 


                                                         
----------------------------|--------------------------| 
----------------------------|--------------------------| 
----------------------------|--------------------------| 
----------------------------|--------------------------| 
----------------------------|-------------9--9---------| 
--3--3--3--x-3--x-3--3--3-x-|--2--2--2--x------2--2/---| 


                                                      
-----------------------------|----------------------| 
-----------------------------|----------------------| 
-----------------------------|----------------------| 
---------------------------4-|----2----0-------2----| 
--2--2--2----2----0-0-2-2----|--------------2-------| 
-----------x----x------------|----------------------| 


                                                           
-----------------------------|---------------------------| 
-----------------------------|---------------------------| 
-----------------------------|---------------------------| 
-----------------------------|---------------------------| 
-----------------------------|--9--9--9----9----9-----4--| 
--3--3--3--x-3--x-3--3-3-5-7-|-----------x----x----2-----| 


                                                                
---------------------------|------|---------------------------| 
---------------------------|------|---------------------------| 
---------------------------|------|---------------------------| 
---------------------------|------|---------------------------| 
--2--2--2--2-2--2-2--2--2--|------|--3--3--3--3-3--3-2--3--5--| 
---------------------------|------|---------------------------| 


                                                         
---------------------------|---------------------------| 
---------------------------|---------------------------| 
---------------------------|---------------------------| 
------------------------4--|---------------------------| 
--2--2--2--2-2--2-0--2-----|---------------------------| 
---------------------------|--0--0--0--0-3--3-0--3--5--| 


                                                         
---------------------------|---------------------------| 
---------------------------|---------------------------| 
---------------------------|---------------------------| 
---------------------------|---------------------------| 
--2------------------------|--3--3--3--3-3--3-2--3--5--| 
-----3--3--3-5--5-3--2--3--|---------------------------| 


                                                         
---------------------------|---------------------------| 
---------------------------|---------------------------| 
---------------------------|---------------------------| 
------------------------4--|---------------------------| 
--2--2--2--2-2--2-0--2-----|---------------------------| 
---------------------------|--0--0--0--0-3--3-0--3--5--| 


                                                         
---------------------------|---------------------------| 
---------------------------|---------------------------| 
---------------------------|---------------------------| 
---------------------------|---------------------------| 
---------------------------|--3--3--3--3-3--3-2--3--5--| 
--3--3--3--3-5--5-3--2--3--|---------------------------| 


                                                         
---------------------------|---------------------------| 
---------------------------|---------------------------| 
---------------------------|---------------------------| 
------------------------4--|---------------------------| 
--2--2--2--2-2--2-0--2-----|---------------------------| 
---------------------------|--0--0--0--0-3--3-0--3--5--| 


                                                         
---------------------------|---------------------------| 
---------------------------|---------------------------| 
---------------------------|---------------------------| 
---------------------------|---------------------------| 
--2------------------------|--3--3--3--3-3--3-2--3--5--| 
-----3--3--3-5--5-3--2--3--|---------------------------| 


                                                         
---------------------------|---------------------------| 
---------------------------|---------------------------| 
---------------------------|---------------------------| 
------------------------4--|---------------------------| 
--2--2--2--2-2--2-0--2-----|---------------------------| 
---------------------------|--0--0--0--0-3--3-0--3--5--| 


                                                                         
----------------------------|-------------------|----------------------| 
----------------------------|-------------------|----------------------| 
----------------------------|-------------------|----------------------| 
----------------------------|--2----------------|----------5---4--0----| 
----5-------9---------------|--3----------------|--2-------------------| 
--3---3--5----2--2-2--3--x--|-------------------|----------------------| 


                                                                  
-------------------------|------------------|-------------------| 
-------------------------|------------------|-------------------| 
----------------------9--|------------------|-------------------| 
-----9--x--7----9--x--9--|------------------|--2----------------| 
--7-----x--7-------x-----|------------------|--3----------------| 
-------------------------|------------------|-------------------| 


                                                                   
----------------------|-----------------------|------------------| 
----------------------|-----------------------|------------------| 
----------------------|--------------------9--|------------------| 
----------9---7--4----|-------x--9------x--9--|------------------| 
--2-------------------|--7----x--7------x-----|------------------| 
----------------------|-----------------------|------------------| 


                                                                       
-------------------|----------------------|--------------------------| 
-------------------|----------------------|--------------------------| 
-------------------|----------------------|--------------------------| 
--2----------------|--0-------5---4--0----|-----9--x--7----9--x--9---| 
--3----------------|--2-------------------|--7-----x--7-------x--10--| 
-------------------|----------------------|----------------------10--| 


                                                               
------------------|-------------------|----------------------| 
------------------|-------------------|----------------------| 
------------------|-------------------|----------------------| 
------------------|--2----------------|--0-------------------| 
------------------|--3----------------|--2-------2---0-------| 
------------------|-------------------|-----------------3----| 


                                                                              
----------------------|-------------------------|---------------------------| 
----------------------|-------------------------|---------------------------| 
----------------------|-------------------------|---------------------------| 
----------------------|-------------------------|---------------------------| 
---------2----2----2--|-------------2--2--2--2--|--3--3--3--3-3--3-2--3--5--| 
--0------0----0----0--|----0--0--0--0--0--0--0--|---------------------------| 


                                                         
---------------------------|---------------------------| 
---------------------------|---------------------------| 
---------------------------|---------------------------| 
------------------------4--|---------------------------| 
--2--2--2--2-2--2-0--2-----|---------------------------| 
---------------------------|--0--0--0--0-3--3-0--3--5--| 


                                                         
---------------------------|---------------------------| 
---------------------------|---------------------------| 
---------------------------|---------------------------| 
---------------------------|---------------------------| 
--2------------------------|--3--3--3--3-3--3-2--3--5--| 
-----3--3--3-5--5-3--2--3--|---------------------------| 


                                                         
---------------------------|---------------------------| 
---------------------------|---------------------------| 
---------------------------|---------------------------| 
------------------------4--|---------------------------| 
--2--2--2--2-2--2-0--2-----|---------------------------| 
---------------------------|--0--0--0--0-3--3-0--3--5--| 


                                                         
---------------------------|---------------------------| 
---------------------------|---------------------------| 
---------------------------|---------------------------| 
---------------------------|---------------------------| 
---------------------------|--3--3--3--3-3--3-2--3--5--| 
--3--3--3--3-5--5-3--2--3--|---------------------------| 


                                                         
---------------------------|---------------------------| 
---------------------------|---------------------------| 
---------------------------|---------------------------| 
------------------------4--|---------------------------| 
--2--2--2--2-2--2-0--2-----|---------------------------| 
---------------------------|--0--0--0--0-3--3-0--3--5--| 


                                                         
---------------------------|---------------------------| 
---------------------------|---------------------------| 
---------------------------|---------------------------| 
---------------------------|---------------------------| 
--2------------------------|--3--3--3--3-3--3-2--3--5--| 
-----3--3--3-5--5-3--2--3--|---------------------------| 


                                                          
---------------------------|----------------------------| 
---------------------------|----------------------------| 
---------------------------|----------------------------| 
------------------------4--|----------------------------| 
--2--2--2--2-2--2-0--2-----|--------------7--7-7--7--7--| 
---------------------------|--0-0-0--0--0---------------| 


                                                         
---------------------------|---------------------------| 
---------------------------|---------------------------| 
---------------------------|---------------------------| 
---------------------------|------------------------4--| 
--3--3--3--3-3--3-2--3--5--|--2--2--2--2-2--2-0--2-----| 
---------------------------|---------------------------| 


                                                         
---------------------------|---------------------------| 
---------------------------|---------------------------| 
---------------------------|---------------------------| 
---------------------------|---------------------------| 
---------------------------|--2------------------------| 
--0--0--0--0-3--3-0--3--5--|-----3--3--3-5--5-3--2--3--| 


                                                         
---------------------------|---------------------------| 
---------------------------|---------------------------| 
---------------------------|---------------------------| 
---------------------------|------------------------4--| 
--3--3--3--3-3--3-2--3--5--|--2--2--2--2-2--2-0--2-----| 
---------------------------|---------------------------| 


                                                         
---------------------------|---------------------------| 
---------------------------|---------------------------| 
---------------------------|---------------------------| 
---------------------------|---------------------------| 
---------------------------|---------------------------| 
--0--0--0--0-3--3-0--3--5--|--3--3--3--3-5--5-3--2--3--| 


                                                         
---------------------------|---------------------------| 
---------------------------|---------------------------| 
---------------------------|---------------------------| 
---------------------------|------------------------4--| 
--3--3--3--3-3--3-2--3--5--|--2--2--2--2-2--2-0--2-----| 
---------------------------|---------------------------| 


                                                         
---------------------------|---------------------------| 
---------------------------|---------------------------| 
---------------------------|---------------------------| 
---------------------------|---------------------------| 
---------------------------|--2------------------------| 
--0--0--0--0-3--3-0--3--5--|-----3--3--3-5--5-3--2--3--| 


                                                         
---------------------------|---------------------------| 
---------------------------|---------------------------| 
---------------------------|---------------------------| 
---------------------------|------------------------4--| 
--3--3--3--3-3--3-2--3--5--|--2--2--2--2-2--2-0--2-----| 
---------------------------|---------------------------| 


                                                           
----------------------------|----------------------------| 
----------------------------|----------------------------| 
----------------------------|----------------------------| 
----------------------------|----------------------------| 
--------------7--7-7--7--7--|----------------------------| 
--0-0-0--0--0---------------|--3--3--3--x-3--x-3--3--3-x-| 


                                                                             
------------------------|---------------------------|----------------------| 
------------------------|---------------------------|----------------------| 
------------------------|---------------------------|----------------------| 
------------------------|---------------------------|----------------------| 
--------2--9/---2--9/---|------------------------9--|----7----5------------| 
--2--2------------------|--7--7--7--x-7--x-5--7-----|--------------5--2----| 


                                                          
-----------------------------|--------------------------| 
-----------------------------|--------------------------| 
-----------------------------|--------------------------| 
-----------------------------|--------------------------| 
-----------------------------|--------------------------| 
--3--3--3--x-3--x-3/-7-7-x-x-|--2--2--2--x-2--x-2--2/---| 


                                                       
--------------------------|--------------------------| 
--------------------------|--------------------------| 
--------------------------|--------------------------| 
--------------------------|--------------------------| 
--2--2--2----9--9-9--9/---|--2--2--2----9--9-9--9/---| 
-----------x--------------|-----------x--------------| 


                                                         
----------------------------|--------------------------| 
----------------------------|--------------------------| 
----------------------------|--------------------------| 
----------------------------|--------------------------| 
----------------------------|-------------9--9---------| 
--3--3--3--x-3--x-3--3--3-x-|--2--2--2--x------2--2/---| 


                                                      
-----------------------------|----------------------| 
-----------------------------|----------------------| 
-----------------------------|----------------------| 
---------------------------4-|----2----0-------2----| 
--2--2--2----2----0-0-2-2----|--------------2-------| 
-----------x----x------------|----------------------| 


                                                           
-----------------------------|---------------------------| 
-----------------------------|---------------------------| 
-----------------------------|---------------------------| 
-----------------------------|---------------------------| 
-----------------------------|--9--9--9----9----9-----4--| 
--3--3--3--x-3--x-3--3-3-5-7-|-----------x----x----2-----| 


                                                               
---------------------------|------|--------------------------| 
---------------------------|------|--------------------------| 
---------------------------|------|--------------------------| 
---------------------------|------|--------------------------| 
--2--2--2--2-2--2-2--2--2--|------|---------------------2/---| 
---------------------------|------|--x-2--x-3--x-5---2-------| 


                                                        
--------------------------|---------------------------| 
--------------------------|---------------------------| 
--------------------------|---------------------------| 
--------------------------|------------------------4--| 
--x----3--3-3--3-2--3--5--|--2--2--2--2-2--2-0--2-----| 
--------------------------|---------------------------| 


                                                         
---------------------------|---------------------------| 
---------------------------|---------------------------| 
---------------------------|---------------------------| 
---------------------------|---------------------------| 
---------------------------|--2------------------------| 
--0--0--0--0-3--3-0--3--5--|-----3--3--3-5--5-3--2--3--| 


                                                         
---------------------------|---------------------------| 
---------------------------|---------------------------| 
---------------------------|---------------------------| 
---------------------------|------------------------4--| 
--3--3--3--3-3--3-2--3--5--|--2--2--2--2-2--2-0--2-----| 
---------------------------|---------------------------| 


                                                         
---------------------------|---------------------------| 
---------------------------|---------------------------| 
---------------------------|---------------------------| 
---------------------------|---------------------------| 
---------------------------|---------------------------| 
--0--0--0--0-3--3-0--3--5--|--3--3--3--3-5--5-3--2--3--| 


                                                         
---------------------------|---------------------------| 
---------------------------|---------------------------| 
---------------------------|---------------------------| 
---------------------------|------------------------4--| 
--3--3--3--3-3--3-2--3--5--|--2--2--2--2-2--2-0--2-----| 
---------------------------|---------------------------| 


                                                         
---------------------------|---------------------------| 
---------------------------|---------------------------| 
---------------------------|---------------------------| 
---------------------------|---------------------------| 
---------------------------|--2------------------------| 
--0--0--0--0-3--3-0--3--5--|-----3--3--3-5--5-3--2--3--| 


                                                         
---------------------------|---------------------------| 
---------------------------|---------------------------| 
---------------------------|---------------------------| 
---------------------------|------------------------4--| 
--3--3--3--3-3--3-2--3--5--|--2--2--2--2-2--2-0--2-----| 
---------------------------|---------------------------| 


                                                          
---------------------------|----------------------------| 
---------------------------|----------------------------| 
---------------------------|----------------------------| 
---------------------------|----------------------------| 
---------------------------|----5-------9---------------| 
--0--0--0--0-3--3-0--3--5--|--3---3--5----2--2-2--3--x--| 


                                                         
---------------------------|---------------------------| 
---------------------------|---------------------------| 
---------------------------|---------------------------| 
---------------------------|------------------------4--| 
--3--3--3--3-3--3-2--3--5--|--2--2--2--2-2--2-0--2-----| 
---------------------------|---------------------------| 


                                                         
---------------------------|---------------------------| 
---------------------------|---------------------------| 
---------------------------|---------------------------| 
---------------------------|---------------------------| 
---------------------------|--2------------------------| 
--0--0--0--0-3--3-0--3--5--|-----3--3--3-5--5-3--2--3--| 


                                                         
---------------------------|---------------------------| 
---------------------------|---------------------------| 
---------------------------|---------------------------| 
---------------------------|------------------------4--| 
--3--3--3--3-3--3-2--3--5--|--2--2--2--2-2--2-0--2-----| 
---------------------------|---------------------------| 


                                                         
---------------------------|---------------------------| 
---------------------------|---------------------------| 
---------------------------|---------------------------| 
---------------------------|---------------------------| 
---------------------------|---------------------------| 
--0--0--0--0-3--3-0--3--5--|--3--3--3--3-5--5-3--2--3--| 


                                                         
---------------------------|---------------------------| 
---------------------------|---------------------------| 
---------------------------|---------------------------| 
---------------------------|------------------------4--| 
--3--3--3--3-3--3-2--3--5--|--2--2--2--2-2--2-0--2-----| 
---------------------------|---------------------------| 


                                                         
---------------------------|---------------------------| 
---------------------------|---------------------------| 
---------------------------|---------------------------| 
---------------------------|---------------------------| 
---------------------------|--2------------------------| 
--0--0--0--0-3--3-0--3--5--|-----3--3--3-5--5-3--2--3--| 


                                                         
---------------------------|---------------------------| 
---------------------------|---------------------------| 
---------------------------|---------------------------| 
---------------------------|------------------------4--| 
--3--3--3--3-3--3----5--3--|--2--2--2--2-2--2-0--2-----| 
------------------3--------|---------------------------| 


                                                       
---------------------------|-------------------------| 
---------------------------|-------------------------| 
---------------------------|-------------------------| 
---------------------------|-------------------------| 
---------------------------|-------------------------| 
--0--0--0--0-3--3-0--3--5--|--3--3--5--x-3---2--3/---| 


                                                       
--------------------------|--------------------------| 
--------------------------|--------------------------| 
--------------------------|--------------------------| 
-----------------2--0-----|--------------------------| 
--3--3--3--3-3---------0--|--2--2--2--2-2---2--5--5--| 
--------------------------|--------------------------| 


                                                       
--------------------------|--------------------------| 
--------------------------|--------------------------| 
--------------------------|--------------------------| 
--------------------------|--------------------------| 
--------------------------|--------------------------| 
--0--0--0--0-0---0--0--0--|--3--3--3--3-3---3--3--3--| 


                                                       
--------------------------|--------------------------| 
--------------------------|--------------------------| 
--------------------------|--------------------------| 
-----------------2--0-----|--------------------------| 
--3--3--3--3-3---------0--|--2--2--2--2-2---2--5--5--| 
--------------------------|--------------------------| 


                                                       
--------------------------|--------------------------| 
--------------------------|--------------------------| 
--------------------------|--------------------------| 
--------------------------|--------------------------| 
--------------------------|--------------------------| 
--0--0--0--0-0---0--0--0--|--3--3--3--3-3---3--3--3--| 


                                                       
--------------------------|--------------------------| 
--------------------------|--------------------------| 
--------------------------|--------------------------| 
-----------------2--0-----|--------------------------| 
--3--3--3--3-3---------0--|--2--2--2--2-2---2--5--5--| 
--------------------------|--------------------------| 


                                                       
--------------------------|--------------------------| 
--------------------------|--------------------------| 
--------------------------|--------------------------| 
--------------------------|--------------------------| 
--------------------------|--------------------------| 
--0--0--0--0-0---0--0--0--|--3--3--3--3-3---3--3--3--| 


                                                       
--------------------------|--------------------------| 
--------------------------|--------------------------| 
--------------------------|--------------------------| 
-----------------2--0-----|--------------------------| 
--3--3--3--3-3---------0--|--2--2--2--2-2---2--5--5--| 
--------------------------|--------------------------| 


                                                                      
--------------------------|--------------------------|----|----|----| 
--------------------------|--------------------------|----|----|----| 
--------------------------|--------------------------|----|----|----| 
--------------------------|--------------------------|----|----|----| 
--------------------------|--------------------------|----|----|----| 
--0--0--0--0-0---0--0--0--|--3--3--3--3-3---3--3--3--|----|----|----| 


                                                            
--------------------------|-------------------------------| 
--------------------------|-------------------------------| 
--------------------------|-------------------------------| 
--------------------------|-------------------------------| 
--------------------------|-------------------------------| 
--3----3--3--3--3--3--3-3-|---3-3--3-3--3-3-3-3-3-3-3-3-3-| 


                                                         
---------------------------|---------------------------| 
---------------------------|---------------------------| 
---------------------------|---------------------------| 
---------------------------|------------------------4--| 
--3--3--3--3-3--3-2--3--5--|--2--2--2--2-2--2-0--2-----| 
---------------------------|---------------------------| 


                                                         
---------------------------|---------------------------| 
---------------------------|---------------------------| 
---------------------------|---------------------------| 
---------------------------|---------------------------| 
---------------------------|--2------------------------| 
--0--0--0--0-3--3-0--3--5--|-----3--3--3-5--5-3--2--3--| 


                                                         
---------------------------|---------------------------| 
---------------------------|---------------------------| 
---------------------------|---------------------------| 
---------------------------|------------------------4--| 
--3--3--3--3-3--3-2--3--5--|--2--2--2--2-2--2-0--2-----| 
---------------------------|---------------------------| 


                                                         
---------------------------|---------------------------| 
---------------------------|---------------------------| 
---------------------------|---------------------------| 
---------------------------|---------------------------| 
---------------------------|---------------------------| 
--0--0--0--0-3--3-0--3--5--|--3--3--3--3-5--5-3--2--3--| 


                                                         
---------------------------|---------------------------| 
---------------------------|---------------------------| 
---------------------------|---------------------------| 
---------------------------|------------------------4--| 
--3--3--3--3-3--3-2--3--5--|--2--2--2--2-2--2-0--2-----| 
---------------------------|---------------------------| 


                                                         
---------------------------|---------------------------| 
---------------------------|---------------------------| 
---------------------------|---------------------------| 
---------------------------|---------------------------| 
---------------------------|--2------------------------| 
--0--0--0--0-3--3-0--3--5--|-----3--3--3-5--5-3--2--3--| 


                                                         
---------------------------|---------------------------| 
---------------------------|---------------------------| 
---------------------------|---------------------------| 
---------------------------|------------------------4--| 
--3--3--3--3-3--3-2--3--5--|--2--2--2--2-2--2-0--2-----| 
---------------------------|---------------------------| 


                                                                              
---------------------------|----------------------------|------------------|| 
---------------------------|----------------------------|------------------|| 
---------------------------|----------------------------|------------------|| 
---------------------------|----------------------------|------------------|| 
---------------------------|----5-------9---------------|------------------|| 
--0--0--0--0-3--3-0--3--5--|--3---3--5----2--2-2--3--x--|------------------|| 

		  

See also:

bass Austin TV - Shiva bass Gazette - Reila bass Austin TV - SatÚlite
e-chords

Other versions:

bass Gazette - Reila
auto scroll beats size up size down change color hide chords drawings
tab show chords e-chords YouTube Clip e-chords hide all tabs e-chords go to top tab

share