Gary Lewis

Turn Around Look At Me

Gary Lewis

bass nolevel nolevel

by  BRUNBLAZKOWSKI

save to print version add songbook text version e-mail correct tuner
chordsukulelecavacokeyboardtabbassdrumsharmonicaflute Guitar Pro
close

there isn't a video lesson for this song

chords

Turn Around Look At Me

	  		
G|------------------------------------------------------------------------------------------------| 
D|------------------------------------------------------------------------------------------------| 
A|6-------------------6---6---------------6---5---3-------------------3---3---------------5---6---| 
E|------------------------------------------------------------------------------------------------| 

G|------------------------------------------------------------------------------------------------| 
D|3-------------------3---3-------------------3---------------------------------------------------| 
A|----------------------------------------3-------1-----------1-----------1-----------1---3---5---| 
E|------------------------------------------------------------------------------------------------| 

0:17 

G|------------------------------------------------------------------------------------------------| 
D|------------------------6-------------------6-------------------------------------------8-------| 
A|6-----------------------------------------------6-----------------------6-------------------6---| 
E|------------------------------------------------------------------------------------------------| 

G|------------------------------------------------------------------------------------------------| 
D|------------------------------------------------8-----------------------8-------------------8---| 
A|8-----------------------8-------------------------------------------8---------------------------| 
E|------------------------------------------------------------------------------------------------| 

0:32 

G|------------------------------------------------------------------------------------------------| 
D|------------------------------------------------------------------------------------8-----------| 
A|8-----------------------8-----------------------4-------------------\---1-------------------8---| 
E|------------------------------------------------------------------------------------------------| 

G|------------------------------------------------------------------------------------------------| 
D|------------------------------------------------6h8-----------------8-------------------8---7---| 
A|6-----------------------6-----------------------------------------------6-----------------------| 
E|------------------------------------------------------------------------------------------------| 

0:46 

G|------------------------------------------------------------------------------------------------| 
D|6-----------------------6-------------------6---5-----------------------------------------------| 
A|--------------------6-------------------6---------------------------5-------------------0---2---| 
E|------------------------------------------------------------------------3-----------------------| 

G|------------------------------------------------------------------------------------------------| 
D|----------------------------------------5-------------------------------------------------------| 
A|3-------------------3---3-------------------3---2-------------------2---2-------------------2---| 
E|------------------------------------------------------------------------------------------------| 

1:01 

G|------------------------------------------------------------------------------------------------| 
D|------------------------------------------------------------------------------------------------| 
A|1-------------------1---1-------------------1---2-------------------2---3-------------------3---| 
E|------------------------------------------------------------------------------------------------| 

G|------------------------------------------------------------------------------------------------| 
D|3-------------------3---3-----------3-----/-----8-----------6-----------5-----------3-----------| 
A|------------------------------------------------------------------------------------------------| 
E|------------------------------------------------------------------------------------------------| 

1:16 

G|------------------------------------------------------------------------------------------------| 
D|------------------------6-------------------8---------------------------------------8-----------| 
A|6-----------------------------------------------6-----------------------6---------------6---7---| 
E|------------------------------------------------------------------------------------------------| 

G|------------------------------------------------------------------------------------------------| 
D|------------------------------------------------8-------------------8---8-----------8-----------| 
A|8-----------------------8-------------------8-------------------------------------------6---7---| 
E|------------------------------------------------------------------------------------------------| 

1:31 

G|------------------------------------------------------------------------------------------------| 
D|--------------------------------------------------------------------------------------------8---| 
A|8-------------------8---8-----------------------4-----------------------1---------------8-------| 
E|------------------------------------------------------------------------------------------------| 

G|------------------------------------------------------------------------------------------------| 
D|------------------------------------------------6h8---------6h8-------------------------3---5---| 
A|6-----------------------6-----------------------------------------------6-----------6-----------| 
E|------------------------------------------------------------------------------------------------| 

1:45 

G|------------------------------------------------------------------------------------------------| 
D|6-----------------------6-------------------6---5-----------------------------------------------| 
A|--------------------6-------------------6---------------------------5-------------------0---2---| 
E|------------------------------------------------------------------------3-----------3-----------| 

G|------------------------------------------------------------------------------------------------| 
D|------------------------------------------------------------------------------------------------| 
A|3-------------------3---3-----------------------2-------------------2---2-----------------------| 
E|------------------------------------------------------------------------------------------------| 

2:00 

G|------------------------------------------------------------------------------------------------| 
D|------------------------------------------------------------------------------------------------| 
A|1-------------------1---2---2---2---2-------2---3---3---3---3-------3---4---4---4---4-------4---| 
E|------------------------------------------------------------------------------------------------| 

G|------------------------------------------------------------------------------------------------| 
D|4/6---------------------6/8---------6/8---------------------------------------------------------| 
A|------------------------------------------------6---------------6---5---3-----------------------| 
E|------------------------------------------------------------------------------------------------| 

G|------------------------------------------------------------------------------------------------| 
D|3-----------------------------------------------------------------------------------------------| 
A|------------------------------------1-----------------------------------------------------------| 
E|------------------------------------------------------------------------------------------------| 

G|----------------------------------------------------| 
D|----------------------------------------------------| 
A|------------------------------------------------6---| 
E|----------------------------------------------------| 
		  

See also:

bass Deep Purple - Smoke On The Water (ver. 3) bass Deep Purple - Ted The Mechanic bass Deep Purple - Fire Ball bass Deep Purple - Black Night bass Deep Purple - Lady Double Dealer bass Deep Purple - Knocking At Your Back Door
e-chords

Other versions:

bass Gary Lewis - Turn Around Look At Me
auto scroll beats size up size down change color hide chords drawings
tab show chords e-chords YouTube Clip e-chords hide all tabs e-chords go to top tab

share with facebook