Gary Lewis

Happiness

Gary Lewis

bass nolevel nolevel

by  UBIRBOMFIM

save to print version add songbook text version e-mail correct tuner
chordsukulelecavacokeyboardtabbassdrumsharmonicaflute Guitar Pro
close

there isn't a video lesson for this song

chords

Happiness

	  		
Tuning: EADG 

G|------------------------------------------------------------------------------------------------| 
D|------------------------------------------------------------------------------------------------| 
A|------------------------------------------------------------------------------------------------| 
E|5---------------------0-5---------0-----0-----0-5---------------------0-5---------0-----0-----0-| 

0:08 

G|------------------------------------------------------------------------------------------------| 
D|--------------------------------------------------------------------------------------------4-6-| 
A|--------------------------------------------4-5-7-----7---7-7-----7-----7-----7---7-7-----7-----| 
E|5-----5---5-5-----5-----5-----5---5-5-----5-----------------------------------------------------| 

G|------------------------------------------------------------------------------------------------| 
D|7-----7-----7-----7-----5-----5-----5-----5-----4-----4-----4-----------3-----3-----3-------3-5-| 
A|----------7-----------------------7-----------------------5-------5---------------5-------5-----| 
E|------------------------------------------------------------------------------------------------| 

G|------------------------------------------------------------------------------------------------| 
D|7-----7---7-4-----4---4-5-----5-----------6-----7-----7---7-4-----4---4-5-----------------------| 
A|----------------------------------5-7-----------------------------------------7-----7---/-14\---| 
E|------------------------------------------------------------------------------------------------| 

0:31 

G|------------------------------------------------------------------------------------------------| 
D|--------------------------------------------------------------------------------------------4-6-| 
A|--------------------------------------------4-5-7-----7---7-7-----7-----7-----7---7-7-----7-----| 
E|5-----5---5-5-----5-----5-----5---5-5-----5-----------------------------------------------------| 

G|------------------------------------------------------------------------------------------------| 
D|7-----7-----7-----7-----5-----5-----5-----5-----4-----4-----4-----------3-----3-----3-------3-5-| 
A|----------7-----------------------7-----------------------5-------5---------------5-------5-----| 
E|------------------------------------------------------------------------------------------------| 

G|------------------------------------------------------------------------------------------------| 
D|7-----7---7-4-----4---4-5-----5-----------6-----------------------------------------------------| 
A|----------------------------------5-7-----------------------------------------------------------| 
E|------------------------------------------------5---------------------5-5---------------------5-| 

0:54 

G|--------------------------------------9---9---9-------------------------------------------------| 
D|--------------------------------------------------------------------------------------7---7---7-| 
A|7-----7-----7-----7-----7-----7-----7---7---7---------------------------------------------------| 
E|------------------------------------------------5-----5-----5-----5-----5-----5-----5---5---5---| 

G|--------------------------------------------9---| 
D|--------------------9---------------------------| 
A|------------------------7-----7-----7-----7---7-| 
E|7-----7-----7-----7---7-------------------------| 

G|------------------------------------------------------------------------------------| 
D|----------7-----------5-----------3-------------------------------------------------| 
A|----------------------------------------------------------------------------------7-| 
E|5-----5-----3-----3-----1-----1-----0-----0---0-0---------------------0-0-----------| 

1:13 

G|------------------------------------------------------------------------------------------------| 
D|7-----7-----7-----7---7-7-----7-----7-----7-------------------------------------------------4-6-| 
A|--------------------------------------------4-5-7-----7-----7-----7---7-7-----7-----7-----7-----| 
E|------------------------------------------------------------------------------------------------| 

G|------------------------------------------------------------------------------------------------| 
D|7-----7-----7-----7-----5-----5-----5-----5-----4-----4-----4-----------3-----3-----3-------3-5-| 
A|----------7-----------------------7-----------------------5-------5---------------5-------5-----| 
E|------------------------------------------------------------------------------------------------| 

G|------------------------------------------------------------------------------------------------| 
D|7-----7---7-4-----4---4-5-----5-----------6-----7-----7---7-4-----4---4-5-----------------------| 
A|----------------------------------5-7-----------------------------------------7-----7---/-14\---| 
E|------------------------------------------------------------------------------------------------| 

1:36 

G|------------------------------------------------------------------------------------------------| 
D|--------------------------------------------------------------------------------------------4-6-| 
A|--------------------------------------------4-5-7-----7---7-7-----7-----7-----7---7-7-----7-----| 
E|5-----5---5-5-----5-----5-----5---5-5-----5-----------------------------------------------------| 

G|------------------------------------------------------------------------------------------------| 
D|7-----7-----7-----7-----5-----5-----5-----5-----4-----4-----4-----------3-----3-----3-------3-5-| 
A|----------7-----------------------7-----------------------5-------5---------------5-------5-----| 
E|------------------------------------------------------------------------------------------------| 

G|------------------------------------------------------------------------------------------------| 
D|7-----7---7-4-----4---4-5-----5-----------6-----7-----7---7-4-----4---4-5-----------------------| 
A|----------------------------------5-7-----------------------------------------7-----7---/-14\---| 
E|------------------------------------------------------------------------------------------------| 

1:59 

G|------------------------------------------------------------------------------------------------| 
D|7-----7---7-4-----4---4-5-----5-----------6-----7-----7---7-4-----4---4-5-----5-----------6-----| x3 
A|----------------------------------5-7---------------------------------------------5-7-----------| 
E|------------------------------------------------------------------------------------------------| 

G|------------------------------------------------------------| 
D|7-----7---7-4-----4---4-5-----5-----------6-----7-----7-----| 
A|----------------------------------5-7-----------------------| 
E|------------------------------------------------------------| 
		  

See also:

bass Deep Purple - Smoke On The Water (ver. 3) bass Deep Purple - Ted The Mechanic bass Deep Purple - Fire Ball bass Deep Purple - Black Night bass Deep Purple - Lady Double Dealer bass Deep Purple - Knocking At Your Back Door
e-chords

Other versions:

bass Gary Lewis - Happiness
auto scroll beats size up size down change color hide chords drawings
tab show chords e-chords YouTube Clip e-chords hide all tabs e-chords go to top tab

share with facebook