Gary Lewis

Bring The Whole Family

Gary Lewis

bass nolevel nolevel

by  ANDRSOUZA

save to print version add songbook text version e-mail correct tuner
chordsukulelecavacokeyboardtabbassdrumsharmonicaflute Guitar Pro
close

there isn't a video lesson for this song

chords

Bring The Whole Family

	  		
0:09 

G|--------| 
D|--------| 
A|4---\---| 
E|--------| 

G|----------------------------------------------------------------| 
D|----------------------------4-----------------------1---2-------| x2 
A|--------------------0---4-------4---------------2-----------2---| 
E|2---------------------------------------------------------------| 

G|----------------------------------------------------------------| 
D|1-----------1---1---1-------1---------------------------3-------| 
A|------------------------1-------1---1-------1---1---1-------1---| 
E|----------------------------------------------------------------| 

G|----------------------------------------------------------------| 
D|1-----------1-------------------------------------------1-------| 
A|----------------4---4-------4---2-----------2---2---4-------2---| 
E|------------------------4---------------------------------------| 

0:29 

G|----------------------------------------------------------------| 
D|2-------2-------4---4---4-------2-------2-------4---4---4-------| 
A|------------2---------------4---------------2---------------4---| 
E|----------------------------------------------------------------| 

G|------------------------------------------------| 
D|2-------2-------4---4---4-----------------------| 
A|------------2---------------4-------------------| 
E|--------------------------------2---------------| 

G|----------------------------------------------------------------| 
D|----------------------------------------------------------------| 
A|4-------------------------------------------------------4---\---| 
E|----------------------------------------------------------------| 

0:43 

G|----------------------------------------------------------------| 
D|----------------------------4-----------------------1---2-------| x2 
A|--------------------0---4-------4---------------2-----------2---| 
E|2---------------------------------------------------------------| 

G|----------------------------------------------------------------| 
D|1-----------1---1---1-------1---------------------------3-------| 
A|------------------------1-------1-----------1---1---1-------1---| 
E|----------------------------------------------------------------| 

G|----------------------------------------------------------------| 
D|1-----------1-------------------------------------------1-------| 
A|----------------4---4-------4---2-----------2---2---4-------2---| 
E|------------------------4---------------------------------------| 

1:02 

G|----------------------------------------------------------------| 
D|2-------2-------4---4---4-------2-------2-------4---4---4-------| 
A|------------2---------------4---------------2-------------------| 
E|----------------------------------------------------------------| 

G|------------------------------------------------| 
D|2-------2-------4---4---4-----------------------| 
A|------------2---------------4-------------------| 
E|--------------------------------2---------------| 

G|--------------------------------------------------------8---\---| 
D|----------------------------------------------------------------| 
A|4---------------------------------------------------------------| 
E|----------------------------------------------------------------| 

G|------------------------8---\---------------------------8---\---| 
D|1-------------------------------1-------------------------------| 
A|----------------------------------------------------------------| 
E|----------------------------------------------------------------| 

1:21 

G|------------------------8---\---------------------------8---\---| 
D|1-------------------------------1-------------------------------| x4 
A|----------------------------------------------------------------| 
E|----------------------------------------------------------------| 

G|------------------------8---\-----------------------------------| 
D|1-------------------------------1-------------------------------| 
A|--------------------------------------------------------1---2---| 
E|----------------------------------------------------------------| 

1:45 

G|----------------------------------------------------------------| 
D|2-------2-------4---4---4-------2-------2-------4---4---4-------| 
A|------------2---------------4---------------2---------------4---| 
E|----------------------------------------------------------------| 

G|------------------------------------------------| 
D|2-------2-------4---4---4-----------------------| 
A|------------2---------------4-------------------| 
E|--------------------------------2---------------| 

G|--------------------------------| 
D|--------------------------------| 
A|4-------------------------------| 
E|--------------------------------| 

1:56 

G|----------------------------------------------------------------| 
D|2-------2-------4---4---4-------2-------2-------4---4---4-------| 
A|------------2---------------4---------------2---------------4---| 
E|----------------------------------------------------------------| 

G|------------------------------------------------| 
D|2-------2-------4---4---4-----------------------| 
A|------------2---------------4-------------------| 
E|--------------------------------2---------------| 

G|----------------------------------------------------------------| 
D|2-------2-------4---4---4-------2-------2-------4---4---4-------| 
A|------------2---------------4---------------2---------------4---| 
E|----------------------------------------------------------------| 

G|----------------------------------------------------| 
D|2-------2-------4---4---4---------------------------| 
A|------------2---------------4-------------------4---| 
E|--------------------------------2-------------------| 
		  

See also:

bass Deep Purple - Smoke On The Water (ver. 3) bass Deep Purple - Ted The Mechanic bass Deep Purple - Fire Ball bass Deep Purple - Black Night bass Deep Purple - Lady Double Dealer bass Deep Purple - Knocking At Your Back Door
e-chords

Other versions:

bass Gary Lewis - Bring The Whole Family
auto scroll beats size up size down change color hide chords drawings
tab show chords e-chords YouTube Clip e-chords hide all tabs e-chords go to top tab

share with facebook