Fu Manchu

The Wasteoid

Fu Manchu

bass

by  JOAOEWERTON

save to print version add songbook text version e-mail correct tuner
chordsukulelecavacokeyboardtabbassdrumsharmonicaflute Guitar Pro
close

there isn't a video lesson for this song

chords

The Wasteoid

	  		
Intro 
G|----R--------------------| 
D|----E----3---------------|(X2) 
A|----S------3-2-----------| 
E|----T-----------3-3h2-1--| 

RIFF 1 
G|-------------------------------------------------------------------| 
D|---------------------------------------------------3---------------|(X2) 
A|-3h5--5-5---3h5--5-5---3h5--5---3h5--5-5---3h5--5----3-2-----------| 
E|----------------------------------------------------------3-3h2-1--| 

RIFF 2 
G|--------------------------|--------------------------| 
D|-----------3--------------|-----------3--------------|(X2) 
A|--3----------3-2----------|--5----------3-2----------| 
E|-----------------3-3h2-1--|-----------------3-3h2-1--| 

RIFF 1 
G|------------------------------------------------------------------| 
D|--------------------------------------------------3---------------|(X2) 
A|-3/5--3--3---3/5--3-3---3/5--5---3/5--3--3---3/5----3-2-----------| 
E|---------------------------------------------------------3-3h2-1--| 

RIFF 3 
G|---------------------------------------------| 
D|----7p5h7-------------------7p5h7------------| 
A|----------6-5---3h5-5--------------6-5---10--| 
E|--5----------------------7-------------------| 
(X1) 
G|---------------------------------------------|   
D|----7p5h7-------------------7p5h7------------| 
A|----------6-5---3h5-5--------------6-5---9---| 
E|--5----------------------7-------------------| 

RIFF 4 
G|---------------------------------------------| 
D|----5p3h5-------------------5p3h5------------| 
A|----------4-3---1h3-3--------------4-3---8---| 
E|--3----------------------7-------------------| 
 (X1) 
G|--------------------------------------------------| 
D|----5p3h5-------------------5p3h5-----------------| 
A|----------4-3---1h3-3--------------4-3---3-3-3-3--| 
E|--3----------------------3------------------------| 

RIFF 5 
G|-----------------------| 
D|-----------------------|(X12) 
A|--5-5--555--55--3-4-5--| 
E|-----------------------| 

BASS SOLO 
G|-----------------------| 
D|-----------------------| 
A|--5-5-5553--33--3-4-5--| 
E|-----------------------| 

DRUM SOLO 

"THE WASTEOID" 

RIFF 1 
G|-------------------------------------------------------------------| 
D|---------------------------------------------------3---------------|(X3) 
A|-3h5--5-5---3h5--5-5---3h5--5---3h5--5-5---3h5--5----3-2-----------| 
E|----------------------------------------------------------3-3h2-1--| 

Outro 
G|--------------------------------------------------------------------------------| 
D|---------------------------------------------------3------3------3--------------| 
A|-3h5--5-5---3h5--5-5---3h5--5---3h5--5-5---3h5--5----3-2----3-2----3-2----------| 
E|-----------------------------------------------------------------------3-3h2-1--| 



************************************ 

| h  Hammer-on 
| /  Slide up 
| p  Pull-off 

************************************ 
		  

See also:

bass Deep Purple - Burn Ver.(2) bass Deep Purple - Highway Star bass Deep Purple - Smoke On The Waterr bass Deep Purple - Strange kind of woman bass Deep Purple - Knocking At Your Back Door bass Deep Purple - Black Night
e-chords

Other versions:

bass Fu Manchu - The Wasteoid
auto scroll beats size up size down change color hide chords drawings
tab show chords e-chords YouTube Clip e-chords hide all tabs e-chords go to top tab

share