Freedom faces

O cume da montanha

Freedom faces

bass

by  OCHATODANET

save to print version add songbook text version e-mail correct tuner
chordsukulelecavacokeyboardtabbassdrumsharmonicaflute Guitar Pro
close

there isn't a video lesson for this song

chords

O cume da montanha

	  		Riff 1 
 
e|-------------------------------------------- 
b|-------------------------------------------- 
g|-------------------------------------------- 
d|-------------------------------------------- 
a|-0-0-0-5-x-5-x-5-x-0-5-x-0-5----------------  x2 
E|-------------------------------------------- 
 
Bridge: 
 
e|-------------------------------------------- 
b|-------------------------------------------- 
g|-------------------------------------------- 
d|-------------------------------------------- 
a|-5-5-5-5-5-5-5-5-5-5------------------------   
E|-------------------------------------------- 
 
Riff 2 
e|-------------------------------------------- 
b|-------------------------------------------- 
g|-------------------------------------------- 
d|-------------------------------------------- 
a|----------3-3-3-3--------------------------- 
E|-5-5-5-5-----------0-0-0-0-----3-3-3-3------   
 
Solo 
e|-------------------------------------------- 
b|-------------------------------------------- 
g|-------------------------------------------- 
d|-------------------------------------------- 
a|-3-3-3-3----------------------------0-0-0-0- 
E|-------------0-0-0-0-----3-3-3-3------------   
 
Música: 
Riff 1 
Quando olhamos para frente 
Vemos o que tem a seguir... 
Vou descer pra depois subir 
pois somente: 
Bridge 
O cume interessa... 
Riff 2 
Vou subir porque estou com pressa 
pois somente... 
 
Solo 
 
Repete música e acaba no bridge.. 
 
 

		  

auto scroll beats size up size down change color hide chords drawings
tab show chords e-chords YouTube Clip e-chords hide all tabs e-chords go to top tab

share