Frank Sinatra

home > Frank Sinatra

Fly Me To The Moom Bass Tab

Frank Sinatra

Difficulty: ExpertExpert

tuner correct add songbook print version text version save to e-mail
chordsukulelecavacokeyboardtabbassdrumsharmonicsflute Guitar Pro
chords

Fly Me To The Moom

	  





Fly Me to the Moon
Tabbed by: Pyrobassfiddler
Standard Tuning

126 Beats per minute

G|-----------|-----------|-----------|------------|------------
D|-----------|-----------|-----------|------------|------------  7X
A|-----------|-----------|-----------|------------|------------
E|-0-1-3-5-|-0-1-3-5-|-0-1-3-5-|-0-1-3-5-|-0-1-3-5---


G|-----------|------------|------------|--------
D|-----------|------------|------------|--------      4X
A|-----------|------------|------------|--------
E|-1-3-5-7-|-1-3-5-7-|-1-3-5-7-|-1-3-5-7

G------------------------
D------------------------
A------------------------
E-9--9--9-9999--9999

G-----------|----------
D-----------|----------  2X
A-----------|----------
E-1-3-5-7-|-1-3-5---

End
G---
D---
A---
E-7/1

If you like this one, there are more to come

	  

there isn't a video lesson for this song

request
Search Paypal
auto scroll beats size up size down change color hide chords drawings
tab show chords e-chords YouTube Clip e-chords hide all tabs e-chords go to top tab