Françoise Hardy

Viens Là

Françoise Hardy

bass

by  TAMAMOREIRA

save to print version add songbook text version e-mail correct tuner
chordsukulelecavacokeyboardtabbassdrumsharmonicaflute Guitar Pro
close

there isn't a video lesson for this song

chords

Viens Là

Year: 1967 - Album: Ma Jeunesse Fout Le Camp

	  		
Verse 
G|----------------|----------------|-----------------|----------------| 
D|---------7------|---------7-----7|-5---5-----------|---------------7| 
A|-------7-------7|-------7--------|--------5-7------|-------7--------| 
E|-5--------------|-5--------------|----------------7|-5-------5------| 

G|------------------|----------------|------------------|-----------------| 
D|-3/5-------5------|-------5--------|-----------------6|-7---7-----------| 
A|---------5-------5|-3-------3-----3|-7---7----7----7--|-----------------| 
E|------------------|----------------|--------7---------|--------5-6---3--| 

Pre-Chorus 
G|----------------|----------------|-----------------|----------------| 
D|---------7------|---------7-----7|-5---5-----------|---------------7| 
A|-------7-------7|-------7--------|--------5-7------|-------7--------| 
E|-5--------------|-5--------------|----------------7|-5-------5------| 

G|----------------|----------------|-----------------|-----------------1| 
D|-5-------5------|-------5--------|-3-------3----3-3|-2-------2---2-4--| 
A|-------5-------5|-3-------3-----3|-------3---------|-------2----------| 
E|----------------|----------------|-----------------|------------------| 

Chorus 
G|-2---------------|-----------------|--------1-2---2---| (x2) 
D|-------2---------|-----------------|-2----2----------2| 
A|---------0----0-4|-2----2-4-5-----5|------------------| 
E|-----------------|-----------------|------------------| 

G|-2---------------|-----------------|----------------|----------------|-----------------| 
D|-------2---------|-----------------|-------6--------|---------------7|-5---5-5-5-------| 
A|---------0----0-4|-2----2-4-5-----5|-4-------4-----4|-5-------5------|-----------7-----| 
E|-----------------|-----------------|----------------|-------5--------|-----------------| 

Bass Outro 
G|----------------|----------------|-----------------|----------------| 
D|---------7------|---------7-----7|-5---5-----------|---------------7| 
A|-------7-------7|-------7--------|--------5-7------|-------7--------| 
E|-5--------------|-5--------------|----------------7|-5-------5------| 

G|----------------|----------------|--| 
D|-5-------5------|-------5--------|-2| 
A|-------5-------5|-3-------3-----3|--| 
E|----------------|----------------|--| 


********************************** 

| / Slide up 

********************************** 
		  

See also:

bass Françoise Hardy - Ma Jeunesse Fout Le Camp bass Françoise Hardy - La Fin De Lété bass Françoise Hardy - Cétait Charmant bass Françoise Hardy - Viens Là
e-chords

Other versions:

bass Françoise Hardy - Viens Là
auto scroll beats size up size down change color hide chords drawings
tab show chords e-chords YouTube Clip e-chords hide all tabs e-chords go to top tab

share