Françoise Hardy

Ma Jeunesse Fout Le Camp

Françoise Hardy

bass

by  HUGO_RODRIGUES

save to print version add songbook text version e-mail correct tuner
chordsukulelecavacokeyboardtabbassdrumsharmonicaflute Guitar Pro
close

there isn't a video lesson for this song

chords

Ma Jeunesse Fout Le Camp

Year: 2003 - Album: Messages Personnels

	  		verse 1 
(00:39) 
G|----------|----------|----------|----------| 
D|----------|----------|----------|----------| 
A|------7---|------7---|-5--------|------7---| 
E|-5--------|-5--------|------5---|-5--------| 

G|----------|----------|----------|----------|---------| 
D|----------|----------|----------|----------|---------| 
A|-7--------|------7---|-5--------|-7--------|-7-------| 
E|------7---|-5--------|------5---|------7---|---------| 

verse 2 
G|----------|----------|----------|----------| 
D|----------|----------|----------|----------| 
A|------7---|------7---|-5--------|------7---| 
E|-5--------|-5--------|------5---|-5--------| 

G|----------|----------|----------|----------|---------| 
D|----------|----------|----------|----------|---------| 
A|-7--------|------7---|-7----7---|------7---|---------| 
E|------7---|-5--------|----------|-5--------|-5-------| 

verse 3 
G|----------|----------|----------|-----------|----------|----------| 
D|-7--------|----------|----------|---------6-|-7--------|-7--------| 
A|------7---|-5--------|-5--------|-7----7----|------7---|------7---| 
E|----------|------5---|------5---|-----------|----------|----------| 

G|----------|----------|----------|----------|----------|---------| 
D|----------|----------|----------|----------|----------|---------| 
A|------7---|-5--------|-5--------|-7--------|------7---|---------| 
E|-5--------|------5---|------5---|------7---|-5--------|-5-------| 

verse 4 
G|----------|----------|----------|----------| 
D|----------|----------|----------|----------| 
A|------7---|------7---|-5--------|------7---| 
E|-5--------|-5--------|------5---|-5--------| 

G|----------|----------|----------|----------|---------| 
D|----------|----------|----------|----------|---------| 
A|-7--------|------7---|-5--------|-7--------|-7-------| 
E|------7---|-5--------|------5---|------7---|---------| 

Verse 5 
G|----------|----------|----------|----------| 
D|----------|----------|----------|----------| 
A|------7---|------7---|-5--------|------7---| 
E|-5--------|-5--------|------5---|-5--------| 

G|----------|----------|------------| 
D|----------|----------|------------| 
A|-7--------|------7---|-7----7-----| 
E|------7---|-5--------|------------| 

Outro 
G|-------------|--| 
D|-------------|--| 
A|-8----7---5--|--| 
E|-------------|-5| 
		  

See also:

bass Françoise Hardy - Ma Jeunesse Fout Le Camp bass Françoise Hardy - La Fin De Lété bass Françoise Hardy - Cétait Charmant bass Françoise Hardy - Viens Là
e-chords

Other versions:

bass Françoise Hardy - Ma Jeunesse Fout Le Camp
auto scroll beats size up size down change color hide chords drawings
tab show chords e-chords YouTube Clip e-chords hide all tabs e-chords go to top tab

share