Françoise Hardy

La Fin De Lété

Françoise Hardy

bass

by  ROBEPOIEL

save to print version add songbook text version e-mail correct tuner
chordsukulelecavacokeyboardtabbassdrumsharmonicaflute Guitar Pro
close

there isn't a video lesson for this song

chords

La Fin De Lété

	  		
Intro 
G|-----------|-----------|-----------|-----------| 
D|-----------|-----------|-----------|-----------| 
A|-4---4-----|-4---4-----|-------8---|-------8---| 
E|-------4---|-------4---|-6---6-----|-6---6-----| 

verse 1 
G|-----------|-----------|-----------|-----------| 
D|-----------|-----------|-----------|-----------| 
A|-4---4-----|-4---4-----|-------8---|-------8---| 
E|-------4---|-------4---|-6---6-----|-6---6-----| 

G|-----------|-----------|-----------|------------| 
D|-----------|-----------|-----------|------------| 
A|-6---6-----|-6---6-----|-8---8-----|-6---6------| 
E|-------6---|-------4---|-------8---|-------4---4| 

G|-----------|-----------|-----------|-----------| 
D|-----------|-----------|-----------|-----------| 
A|-4---4-----|-4---4-----|-------8---|-------8---| 
E|-------4---|-------4---|-6---6-----|-6---6-----| 

G|-----------|-----------|-----------|-----------| 
D|-----------|-----------|-----------|-----------| 
A|-6---6-----|-6---6-----|-8---8-8---|-9---9-9---| 
E|-------6---|-------4---|-----------|-----------| 

G|-----------|-----------|-----------|-----------| 
D|-----------|-----------|-----------|-----------| 
A|-8---8-8---|-9---9-9---|-8---8-8---|-----------| 
E|-----------|-----------|-----------|-6---6-6---| 

G|-----------|------------|------------| 
D|-----------|------------|-6---6------| 
A|-6---6-----|-------6---6|-------6---6| 
E|-------6---|-4---4------|------------| 

verse 2 
G|-----------|-----------|-----------|-----------| 
D|-----------|-----------|-----------|-----------| 
A|-4---4-----|-4---4-----|-------8---|-------8---| 
E|-------4---|-------4---|-6---6-----|-6---6-----| 

G|-----------|-----------|-----------|------------| 
D|-----------|-----------|-----------|------------| 
A|-6---6-----|-6---6-----|-8---8-----|-6---6------| 
E|-------6---|-------4---|-------8---|-------4---4| 

G|-----------|-----------|-----------|-----------| 
D|-----------|-----------|-----------|-----------| 
A|-4---4-----|-4---4-----|-------8---|-------8---| 
E|-------4---|-------4---|-6---6-----|-6---6-----| 

G|-----------|-----------|-----------|-----------| 
D|-----------|-----------|-----------|-----------| 
A|-6---6-----|-6---6-----|-8---8-8---|-9---9-9---| 
E|-------6---|-------4---|-----------|-----------| 

G|-----------|-----------|-----------|-----------| 
D|-----------|-----------|-----------|-----------| 
A|-8---8-8---|-9---9-9---|-8---8-8---|-----------| 
E|-----------|-----------|-----------|-6---6-6---| 

G|-----------|------------|------------| 
D|-----------|------------|-6---6------| 
A|-6---6-----|-------6---6|-------6---6| 
E|-------6---|-4---4------|------------| 

verse 3/Outro 
G|-----------|-----------|-----------|-----------| 
D|-----------|-----------|-----------|-----------| 
A|-4---4-----|-4---4-----|-------8---|-------8---| 
E|-------4---|-------4---|-6---6-----|-6---6-----| 

G|-----------|-----------|-----------|------------| 
D|-----------|-----------|-----------|------------| 
A|-6---6-----|-6---6-----|-8---8-----|-6---6------| 
E|-------6---|-------4---|-------8---|-------4---4| 

G|-----------|-----------|-----------|-----------| 
D|-----------|-----------|-----------|-----------| 
A|-4---4-----|-4---4-----|-------8---|-------8---| 
E|-------4---|-------4---|-6---6-----|-6---6-----| 

G|-----------|----------|--| 
D|-----------|----------|--| 
A|-6---6-----|-6--------|-4| 
E|-------6---|------4---|--| 
		  

See also:

bass Françoise Hardy - Ma Jeunesse Fout Le Camp bass Françoise Hardy - La Fin De Lété bass Françoise Hardy - Cétait Charmant bass Françoise Hardy - Viens Là
e-chords

Other versions:

bass Françoise Hardy - La Fin De Lété
auto scroll beats size up size down change color hide chords drawings
tab show chords e-chords YouTube Clip e-chords hide all tabs e-chords go to top tab

share